» » »

Down, Jail Tabs (ver.3)

Artists:  A B C D E F G H I J K L M N O P Q R S T U V W X Y Z # 

Jail Tabs (ver.3)

Down Tabs
Rating:
5/5 (1 vote)
Jail lessons Tabs too difficult? Try these video lessons and learn fast
                -------------------------------------------------------------------------------
                             SONG NAME - Band Name
-------------------------------------------------------------------------------

Tuning: C# Standard, C#,F#,B,E,G#,C#

This is the basic part to the song, when i get some time i'll do the lil fills and 
but as for now all i see are wrong tabs on the internet so im'a set it straight.


e|---------------------------------------------------------------------------|
B|---------------------------------------------------------------------------|
G|---------------------------------------------------------------------------|
D|-------7--------------7--------------7--------------7---7\9/7-----5--------|
A|---7------7---7---7------7---7---7------7---7---7---------------5----------|
E|-5---5------5---5---5------5---5---5------5---5---5---5-------3------------|

e|---------------------------------------------------------------------------|
B|---------------------------------------------------------------------------|
G|---------------------------------------------------------------------------|
D|-------------5--------------5--------------5---5\7-----(REPEAT)------------|
A|-5---5---5------5---5---5------5---5---5-----------------------------------|
E|---3---3---3------3---3---3------3---3---3---3-----------------------------|


| /  slide up
| \  slide down
| h  hammer-on
| p  pull-off
| ~  vibrato
| +  harmonic
| x  Mute note
===============================================================================
            

comments powered by Disqus
↑ Back to top | Down Tabs for Jail. Lyrics for acoustic guitar and electric guitar. Tablatures and chords are parodies/interpretations of the original songs. You may use it for private study, scholarship, research or language learning purposes only