» » »

Down, Jail Tabs (ver.1)

Artists:  A B C D E F G H I J K L M N O P Q R S T U V W X Y Z # 

Jail Tabs (ver.1)

Down Tabs
 Rating:
4/5 (5 votes)
Jail lessons Tabs too difficult? Try these video lessons and learn fast
                I tried to get this down (no pun intended) and came up with this. It's not perfect and 
missing some stuff. Enjoy!

This is in standard tuning:

b = bend up
h = hammer on
s = slide

                  3x                                3x
-----------|---------------|-----------------|--------------|-------|
-----------|---------------|-----------------|--------------|-------|
-----------|*-------------*|-----------------|*------------*|-------|
--------4--|*-----------4-*|-------6--4----2-|*----------2-*|-------|
----4------|--4--4--4------|--4---------4----|--2--2--2-----|-2--2--|
--2---2----|---2--2--2-----|----2---------0--|---0--0--0----|--0----|


         3x                                    2x
-|---------------|-------------------|------------------------------|
-|---------------|-------------------|------------------------------|
-|*----13-13b14-*|----13---13s11---9-|*-9h11-9--9h11-9-----9s11---*-|
-|*-11----------*|-11---11--------9--|*----------------9-------11-*-|
-|---------------|-------------------|------------------------------|
-|---------------|-------------------|------------------------------|
            
Submit corrections

comments powered by Disqus
↑ Back to top | Down Tabs for Jail. Lyrics for acoustic guitar and electric guitar. Tablatures and chords are parodies/interpretations of the original songs. You may use it for private study, scholarship, research or language learning purposes only