» » »

Down, His Majesty The Desert Tabs (ver.1)

Artists:  A B C D E F G H I J K L M N O P Q R S T U V W X Y Z # 

His Majesty The Desert Tabs (ver.1)

Down Tabs
 Rating:
4/5 (4 votes)
His Majesty The Desert lessons Tabs too difficult? Try these video lessons and learn fast
1
                I haven't tabbed a song on here in a lonnnggggg time. This isn't perfect, but close
enough. I tabbed this song with my guitar tuned in standard. I'm sure they used a down
tuning, for most of their songs are tuned down one step and a half. Use a lot of 
reverb....anyways, Enjoy.

^ = Bend. (All bends are bent up one half step then back down.)
/ = Slide.
H = Hammer on.


Main riff
E|--------------------------------------|----------------------------------|
B|--------------------------------------|----------------------------------|
G|-----9-11-----------------------------|----9-11--------------------------|
D|---9------12-11^12^11--------9/11-9---|--9-----12-11^12^11------9H11-9--9|
A|-9---------------------12-12--------12|9-------------------12-12------12-|
E|--------------------------------------|----------------------------------|


Second riff
E|------------------------------------------------------------|
B|------------------------------------------------------------|
G|------------------------------------------------------------|
D|----11/13-11----9-9H11-9------11/13-11-9-9H11----9-9H11-9---|
A|-9------------12--------12-9-------------------12--------12-|
E|------------------------------------------------------------|
            
Submit corrections

comments powered by Disqus
↑ Back to top | Down Tabs for His Majesty The Desert. Lyrics for acoustic guitar and electric guitar. 1 Tablatures and chords are parodies/interpretations of the original songs. You may use it for private study, scholarship, research or language learning purposes only