>
 >
Eyes Of The South

Eyes Of The South Guitar Tabs

Down - Eyes Of The South chords, tabs, tablatures, lyrics

Guitar lessons | Add/correct | Request | Top 50 tabs Artists:  A B C D E F G H I J K L M N O P Q R S T U V W X Y Z 0-9

Eyes Of The South Guitar Tabs – Down

CD, Sheet music, Poster

Do you like Eyes Of The South? Share with your friends now
TabsTabs v2
Tuning: 1 1/2 steps down except low E string which is 2 1/2 steps down


RHYTHM
Rhythm guitar plays the same thing as the lead, except during the intro
solo, where it kicks in (*) and plays this:

C#-----------------------------------------|
G#-----------------------------------------|
E -----5------7\---------------------------|
B -----5------7\---------------------------|
F#--5h7------------------------------------|
B ----------0----0-0-0-0-0-0-0-0-0-0-0-0-0-|

Also, during the 3rd Solo (the slower one), it repeats this:

C#-----------------------------------------|
G#-----------------------------------------|
E -----------------------------------------|
B --------15--------14------5------5-------|
F#-----12--------12-------8------8---------|
B --12--------12--------8------7-----------|




LEAD
Intro Solo (divided into licks, timing isnt correct, 
but its easy to figure out):
1)
C#--------------------------------------------------|
G#-----------------10-10-10-10-10-10-10-10-10-\-----|
E ---12----12--10-----------------------------------|
B --------------------------------------------------|
F#--------------------------------------------------|
B --------------------------------------------------|

2)
C#--------------------------------------------------|
G#--------------------------------------------------|
E ---------------------10----10--10-----------------|
B --10--10--12--10--12---------------12-------------|
F#--------------------------------------------------|
B --------------------------------------------------|

3)
C#--------------------------------------------------|
G#--------------------------------------------------|
E --------------------------------------------------|
B --17/18-17-18-17---15-15\-------------------------|
F#--------------------------------------------------|
B --------------------------------------------------|

4)
C#--------------------------------------------------|
G#--12--10--12--10---------------------10~----------|
E --12--10--12--10-----12(13)r12-10----10~----------|
B --12--10--12--10------------------12--------------|
F#--------------------------------------------------|
B --------------------------------------------------|

5)
C#--10~---------------------------------------------|
G#--------------------------------------------------|
E ------12(13)r12--10^12^10-----10-10---------------|
B --------------------------12---------12-10-12-----|
F#--------------------------------------------------|
B --------------------------------------------------|

6)
C#-------10----10--12(13)----13(15)r13--------------|
G#-x--12----12-------------------------13-----------|
E -x------------------------------------------------|
B --------------------------------------------------|
F#--------------------------------------------------|
B --------------------------------------------------|

  --------------------------------------------------|
  -13(15)r13----------------------------------------|
  -----------12--12(13)r12--10-10-------------------|
  --------------------------------------------------|
  --------------------------------------------------|
  --------------------------------------------------|

7)               (*) 
C#--------------------------------------------------|
G#-10~----------------------------------------------|
E -10~---------------10(12)----12(13)12--10-10------|
B ------12^10^10------------------------------------|
F#--------------------------------------------------|
B --------------------------------------------------|

8)
C#--------------------------------------------------|
G#--------------------------------------------------|
E --------------------------------------------------|
B --12---10------------10^12------------------------|
F#------------10---8--------------------------------|
B --------------------------------------------------|

9)
C#--------------------------------------------------|
G#---12--10--12--10--10--12--10---------------------|
E ---12--10--12--10--10--12--10---------------------|
B ---12--10--12--10--10--12--10----12---------------|
F#--------------------------------------------------|
B --------------------------------------------------|

10)
C#--------------------------------------------------|
G#--------------------------------------------------|
E --12(13)r12-10^12/---12(13)r12-10^12--------------|
B --------------------------------------------------|
F#--------------------------------------------------|
B --------------------------------------------------|

  --------------------------------------------------|
  --------------------------10----------------------|
  --12(13)r12-10------------10----------------------|
  -------------------10-----------------------------|
  ----------------12----12----------/12\------------|
  ----------------------------------/12\------------|

Kickin/Chorus:
C#--------------------------------------------------|
G#--------------------------------------------------|
E --------------------------------------------------|
B --------------------------------------------------|
F#----0--3-----5--------3--5------------------------|
B -0--0--3--0--5--0--0--3--5--7~--------------------|

Verse:
C#--------------------------------------------------|
G#--------------------------------------------------|
E --------------------------------------------------|
B ----7---7\5---------------------------------------|
F#----5---5\3---6-6-6-6--5-3--0---------------------|
B --0-----------6-6-6-6--5-3--0---------------------|

Bridge:
C#--------------------------------------------------|
G#--------------------------------------------------|
E --------------------------------------------------|
B --------------5/7-7-7-7-------------5/7-7-7-7-----|
F#--7\--5\---3--3/5-5-5-5--7\--10\-3--3/5-5-5-5-----|
B --7\--5\---3-------------7\--10\-3----------------|

  --------------------------------------------------|
  --------------------------------------------------|
  --------------------------------------------------|
  --------------5/7-7-7-7---------------5---5---5/7-|
  --7\--5\---3--3/5-5-5-5--7\--10\--3---3---3---3/5-|
  --7\--5\---3-------------7\--10\--3-0---0---0-----|

2nd Solo:
1)
C#----------------------------------------------|
G#----------------------------------------------|
E --10/12-12-12-12-12--12(13)r12--10------------|
B -----------------------------------12---------|
F#----------------------------------------------|
B ----------------------------------------------|

2)
C#----------------------------------------------|
G#-----13----13----13----13----13/15~-----------|
E --12----12----12----12----12------------------|
B ----------------------------------------------|
F#----------------------------------------------|
B ----------------------------------------------|

3rd Solo:
1)
C#----------------------------------------------|
G#----------------------------------------------|
E --12(14)--10^12^10--10\9^10^9---9(10)r9\7--7--|
B ----------------------------------------------|
F#----------------------------------------------|
B ----------------------------------------------|

2)
C#----------------------------------------------|
G#---------------8(9)r8---12(13)----------------|
E --7/9^10---12------------------10^12^10\9-----|
B ----------------------------------------------|
F#----------------------------------------------|
B ----------------------------------------------|

At this point Phil begins to sing, and the guitar goes
along with his vocals:

3)
C#----------------------------------------------|
G#--8(10)r8-------------------------------------|
E -----------12~--10~---9~---10~^9^10^9---------|
B ----------------------------------------------|
F#----------------------------------------------|
B ----------------------------------------------|

  ----------------------------10~---10^9~-------|
  --8(10)r8-------------------------------------|
  -----------12~---10~---9~---------------------|
  ----------------------------------------------|
  ----------------------------------------------|
  ----------------------------------------------|

Breakdown:
C#----------------------------------------------|
G#----------------------------------------------|
E ----------------------------------------------|
B ----------------------------------------------|
F#--0-3-5--0-3-5--0-3-5-0-5-0--7-8-9------------|
B --0-3-5--0-3-5--0-3-5-0-5-0--7-8-9------------|

  ----------------------------------------------|
  ----------------------------------------------|
  ----------------------------------------------|
  -------------------------p.m------------------|
  --0-3-5--0-3-5--0-3-5-0--0-0--7-8-9-----------|
  --0-3-5--0-3-5--0-3-5-0--0-0--7-8-9-----------|

Breakdown interlude:
C#----------------------------------------------|
G#----------------------------------------------|
E --12---(14)~---/17~---------------------------|
B ----------------------------------------------|
F#--------------------------------\-7-8-9-------|
B --------------------------------\-7-8-9-------|

---Intro Solo
Kickin (12 times)
Verse (4 times)
Bridge (once)
Chorus (4 times)
---2nd Solo
Verse (4 times)
Bridge (once)
Chorus (4 times)
---3rd Solo
Breakdown (4 times)
---Breakdown Interlude
Breakdown till end of song





Comments


Popular Down tabs & chords
Salamat Chords
3 Suns And 1 Star Tabs
Dog Tired Tabs
Eyes Of The South 1 Tabs
Ghosts Along The Mississippi 1 Tabs
His Majesty The Desert Tabs
Lifer 1 Tabs
Lysergic Funeral Procession 1 Tabs
The Man That Follows Hell 1 Tabs
Underneath Everything Tabs


Song lyrics



↑ Back to top | Tablatures and chords are parodies/interpretations of the original songs. You may use it for private study, scholarship, research or language learning purposes only
© 2014 AZChords.com Contact us | Privacy policy | DMCA | Add/correct tabs | Request tabs | Top 50 tabs