» » »

Down, Beneath The Tides Tabs (ver.1)

Artists:  A B C D E F G H I J K L M N O P Q R S T U V W X Y Z # 

Beneath The Tides Tabs (ver.1)

Down Tabs
 Rating:
4.2/5 (5 votes)
Beneath The Tides lessons Tabs too difficult? Try these video lessons and learn fast
                (Intro)

BENEATH THE TIDES
As recorded by DOWN
(From the 2007 Album DOWN III-OVER THE UNDER)



i saw that no one has posted this song yet so i thout i'd give it a shot.
the rythem repeats pretty much throughout the entire song

 Words by ansalmo Music by ansalmo and brown
Arranged by ansalmo
 

Gtr I (C# F# B E G# C#) - 'Untitled'


  Q=130
 4/4
  Gtr I
|---------------------------------|-----------------------------------|-|
|---------------------------------|-----------------------------------|-|
|---------------------------------|-----------------------------------|-|
|-5h7-----7-----7---7-7---5h7-7-7-|-5h7-----7-----7b9r7---5h7---7-7-7-|-|
|-0---0-0-0-0-0-0-0-0-0-0-0---0-0-|-0---0-0-0-0-0-----0-0-0-0-0-0-0-0-|-|
|---------------------------------|-----------------------------------|-|


|---------------------------------------------------|----|
|---------------------------------------------------|----|
|---------------------------------------------------|----|
|-5-7-----7-------7p5p4-4h5p4-4h5p4p2-2-2-2-2-2-2-2-|----|
|-0---0-0-0-0-0-0-0-0-----------------0-0-0-0-0-0-0-|----|
|---------------------------------------------------|----|


|---------------------------------|--------------------------------------|
|---------------------------------|--------------------------------------|
|---------------------------------|-4h5-----5-----/7---5---4b6r4---------|
|-5-7-----7-----7-5-7-------7---7-|-5h7-----7-----/9---7---5---5---------|
|-0---0-0-0-0-0-0-0---0-0-0-0-0-0-|-----0-0---0-0----0---0-----0-0-0-0---|
|---------------------------------|--------------------------------------|


|-----------------|-----------------|-----------------|------|
|-----------------|-----------------|-----------------|------|
|-----------------|-----------------|-----------------|------|
|-5-7-----7-------|-7p5p4-4h5p4-4h5p|=4p2-2-2-2-2-2-2-|-2----|
|-0---0-0-0-0-0-0-|-0-0-------------|-----0-0-0-0-0-0-|-0----|
|-----------------|-----------------|-----------------|------|




--------------------------------------------------------------------------------


Tablature Legend
----------------
 h   - hammer-on
 p   - pull-off
 b   - bend
 pb  - pre-bend
 r   - bend release (if no number after the r, then release immediately)
 /\  - slide into or out of (from/to "nowhere")
 s   - legato slide
 S   - shift slide
 - natural harmonic
[n]  - artificial harmonic
n(n) - tapped harmonic
 ~   - vibrato
 tr  - trill
 T   - tap
 TP  - trem. picking
 PM  - palm muting
\n/  - tremolo bar dip; n = amount to dip
 \n  - tremolo bar down
 n/  - tremolo bar up
/n\  - tremolo bar inverted dip
 =   - hold bend; also acts as connecting device for hammers/pulls
 <> - volume swell (louder/softer)
 x   - on rhythm slash represents muted slash
 o   - on rhythm slash represents single note slash

Misc Legend
-----------
 |  - bar
||  - double bar
||o - repeat start
o|| - repeat end
*|  - double bar (ending)
 :  - bar (freetime)
 $  - Segno
 &  - Coda
Tempo markers -  = BPM(8/16=s8/s16), where s8 = swing 8ths, s16 = swing 16ths



--------------------------------------------------------------------------------
            
Submit corrections

comments powered by Disqus
↑ Back to top | Down Tabs for Beneath The Tides. Lyrics for acoustic guitar and electric guitar. Tablatures and chords are parodies/interpretations of the original songs. You may use it for private study, scholarship, research or language learning purposes only