» » »

Down, 3 Suns And 1 Star Tabs (ver.1)

Artists:  A B C D E F G H I J K L M N O P Q R S T U V W X Y Z # 

3 Suns And 1 Star Tabs (ver.1)

Down Tabs
 Rating:
3.5/5 (8 votes)
3 Suns And 1 Star lessons Tabs too difficult? Try these video lessons and learn fast
                -------------------------------------------------------------------------------
-------------------------------------------------------------------------------

Tuning: 1 and 1/2 steps down

e|---------------------------------------------------------------------------|
B|---------------------------------------------------------------------------|
G|---------------------------------------------------------------------------|
D|------------5-----------------------------------------5-------------5------|
A|----7---7--------7---5-------7p5p0--5h7--7---7----5h7---7---7---5h7--------|
E|--0---0---0----0---0---0-5-0---------------0---0----------0---0-------5--3-|


e|----------------------------------------------------|
B|----------------------------------------------------|
G|----------------------------------------------------|
D|--2-2-------2-2-------2-2-------2-2-------2-2-------|
A|--2-2-x-x-x-2-2-x-x-x-2-2-x-x-x-2-2-x-x-x-2-2-x-x-x-|
E|--0-0-x-x-x-0-0-x-x-x-0-0-x-x-x-0-0-x-x-x-0-0-x-x-x-|

e|--------------------------------|
B|--------------------------------|
G|--------------------------------|
D|---2-2-----3-3-----5-5-----7-7--|
A|---2-2-----3-3-----5-5-----7-7--|
E|-0-0-0---0-1-1---0-3-3---0-5-5--|

e|--------------------------------------------------------------------|
B|--------------------------------------------------------------------|
G|--------------------------------------------------------------------|
D|--------------------------------------------------------------------|
A|--------5--/9--7-------5--/7--5--------5-----------------5----------|
E|--0-5h7----------0-5h7-----------0-5h7---6-5-3-0---0-5h7---6-5-3-0--|

e|-----------------------------------|
B|-----------------------------------|
G|-----------------------------------|
D|--5--5-5-5--5--5-5-5--8-7-8-10-8-7-|
A|--5--5-5-5--5--5-5-5--8-7-8-10-8-7-|
E|--3--3-3-3--3--3-3-3--6-5-6-8--6-5-|
            
Submit corrections

comments powered by Disqus
↑ Back to top | Down Tabs for 3 Suns And 1 Star. Lyrics for acoustic guitar and electric guitar. Tablatures and chords are parodies/interpretations of the original songs. You may use it for private study, scholarship, research or language learning purposes only