» » »

You Spin Me Right Round Tabs (ver.3)

Artists:  A B C D E F G H I J K L M N O P Q R S T U V W X Y Z # 

You Spin Me Right Round Tabs (ver.3)

Dope
Rating:
0/5 (0 votes)

Tabs too difficult? Try these video lessons and learn fast.
                Tuning: Drop D

Guitar I 
Guitar II

v - Down Strum
^ - Up Strum
~ - Hold note
. - Palm muted
/ - Slide up

INTRO - Gtr II

E|-----------------|
B|-----------------|
G|-----------------|
D|-4-4-4-4-7-7-2-2-|
A|-4-4-4-4-7-7-2-2-|
D|-4-4-4-4-7-7-2-2-|


Gtr II

|-----------------------------------------------------------------|
|-----------------------------------------------------------------|
|-----------------------------------------------------------------|
|-4-4-4-4-4-4-4-4-7-7-7-7-2-2-2-2-4-4-4-4-4-4-4-4-9-9-9-9-2-2-2-2-|
|-4-4-4-4-4-4-4-4-7-7-7-7-2-2-2-2-4-4-4-4-4-4-4-4-9-9-9-9-2-2-2-2-|
|-4-4-4-4-4-4-4-4-7-7-7-7-2-2-2-2-4-4-4-4-4-4-4-4-9-9-9-9-2-2-2-2-|


Gtr II                                                           Gtr I
 
|------------------------------------|                           |---------------------------|
|------------------------------------|                           |-14~-12~-10~-9~-7-7-7-7<<<-|
|------------------------------------| Gtr I on top of Gtr II >> |---------------------------|
|-11-11-11-9-9-9-7-7-7-6-6-6-4-4-4-4-|                           |---------------------------|
|-11-11-11-9-9-9-7-7-7-6-6-6-4-4-4-4-|                           |---------------------------|
|-11-11-11-9-9-9-7-7-7-6-6-6-4-4-4-4-|                           |---------------------------|
  v  ^  v  v ^ v v ^ v v ^ v v v v v


Gtr II

|-----------|
|-----------|
|-----------|
|-4-4--4444-|
|-4-4--4444-|
|-4-4--4444-|
  v v  v^v^


Gtr I

|----------------------------------------------------|
|----------------------------------------------------|
|----------------------------------------------------|
|-2/44-444444--2/44-444444--7/99-999999--7/99-999999-|  X2
|-2/44-444444--2/44-444444--7/99-999999--7/99-999999-|
|-2/44-444444--2/44-444444--7/99-999999--7/99-999999-|
  v vv v^v^vv  v vv v^v^vv  v vv v^v^vv  v vv v^v^vv 


Gtr II

|-------------------------------------------------------------|
|-------------------------------------------------------------|
|-------------------------------------------------------------|
|-4-4-4-4-4-4-4-4-7-7-7-7-7-7-7-7-9-9-9-9-9-9-9-9-11-11-11-11-|
|-4-4-4-4-4-4-4-4-7-7-7-7-7-7-7-7-9-9-9-9-9-9-9-9-11-11-11-11-|
|-4-4-4-4-4-4-4-4-7-7-7-7-7-7-7-7-9-9-9-9-9-9-9-9-11-11-11-11-|


Gtr I (Plays on top of Gtr II)

|--------------------------------------------------------------|
|--------------------------------------------------------------|
|-4~--------------7~--------------9~--------------7~-----------|
|--------------------------------------------------------------|
|--------------------------------------------------------------|
|--------------------------------------------------------------|


Gtr I

|------------------------------------------------|
|------------------------------------------------|
|------------------------------------------------|
|-2/44-44444--2/44-44444--7/99-99999--7/99-99999-|  X2
|-2/44-44444--2/44-44444--7/99-99999--7/99-99999-|
|-2/44-44444--2/44-44444--7/99-99999--7/99-99999-|
  v vv v^v^v  v vv v^v^v  v vv v^v^v  v vv v^v^v 


Gtr II

|-------------------------------------------------------------|
|-------------------------------------------------------------|
|-------------------------------------------------------------|
|-4-4-4-4-4-4-4-4-7-7-7-7-7-7-7-7-9-9-9-9-9-9-9-9-11-11-11-11-|
|-4-4-4-4-4-4-4-4-7-7-7-7-7-7-7-7-9-9-9-9-9-9-9-9-11-11-11-11-|
|-4-4-4-4-4-4-4-4-7-7-7-7-7-7-7-7-9-9-9-9-9-9-9-9-11-11-11-11-|


Gtr I (Plays on top of Gtr II)

|--------------------------------------------------------------|
|--------------------------------------------------------------|
|-4~--------------7~--------------9~--------------11~----------|
|--------------------------------------------------------------|
|--------------------------------------------------------------|
|--------------------------------------------------------------|


Chorus - Gtr I & II

|-----------------------------------------------------------------|
|-----------------------------------------------------------------|
|-----------------------------------------------------------------|
|-4-4-4-4-4-4-4-4-7-7-7-7-2-2-2-2-4-4-4-4-4-4-4-4-9-9-9-9-2-2-2-2-|  X2
|-4-4-4-4-4-4-4-4-7-7-7-7-2-2-2-2-4-4-4-4-4-4-4-4-9-9-9-9-2-2-2-2-|
|-4-4-4-4-4-4-4-4-7-7-7-7-2-2-2-2-4-4-4-4-4-4-4-4-9-9-9-9-2-2-2-2-|


Gtr I & II

|-------|
|-------|
|-------|
|-4-4-4-|
|-4-4-4-|
|-4-4-4-|


Gtr I

|----------------------------------------------------|
|----------------------------------------------------|
|----------------------------------------------------|
|-2/44-444444--2/44-444444--7/99-999999--7/99-999999-|  X2
|-2/44-444444--2/44-444444--7/99-999999--7/99-999999-|
|-2/44-444444--2/44-444444--7/99-999999--7/99-999999-|
  v vv v^v^vv  v vv v^v^vv  v vv v^v^vv  v vv v^v^vv 


Gtr II

|-------------------------------------------------------------|
|-------------------------------------------------------------|
|-------------------------------------------------------------|
|-4-4-4-4-4-4-4-4-7-7-7-7-7-7-7-7-9-9-9-9-9-9-9-9-11-11-11-11-|
|-4-4-4-4-4-4-4-4-7-7-7-7-7-7-7-7-9-9-9-9-9-9-9-9-11-11-11-11-|
|-4-4-4-4-4-4-4-4-7-7-7-7-7-7-7-7-9-9-9-9-9-9-9-9-11-11-11-11-|


Gtr I (Plays on top of Gtr II)

|--------------------------------------------------------------|
|--------------------------------------------------------------|
|-4~--------------7~--------------9~--------------7~-----------|
|--------------------------------------------------------------|
|--------------------------------------------------------------|
|--------------------------------------------------------------|


Chorus - Gtr I & II

|-----------------------------------------------------------------|
|-----------------------------------------------------------------|
|-----------------------------------------------------------------|
|-4-4-4-4-4-4-4-4-7-7-7-7-2-2-2-2-4-4-4-4-4-4-4-4-9-9-9-9-2-2-2-2-|  X2
|-4-4-4-4-4-4-4-4-7-7-7-7-2-2-2-2-4-4-4-4-4-4-4-4-9-9-9-9-2-2-2-2-|
|-4-4-4-4-4-4-4-4-7-7-7-7-2-2-2-2-4-4-4-4-4-4-4-4-9-9-9-9-2-2-2-2-|


Gtr I

|-----------------------------------------------------------------|
|-----------------------------------------------------------------|
|-----------------------------------------------------------------|
|-4-4-4-4-4-4-4-4-4-4-4-4-4-4-4-4-9-9-9-9-9-9-9-9-9-9-9-9-9-9-9-9-|
|-4-4-4-4-4-4-4-4-4-4-4-4-4-4-4-4-9-9-9-9-9-9-9-9-9-9-9-9-9-9-9-9-|
|-4-4-4-4-4-4-4-4-4-4-4-4-4-4-4-4-9-9-9-9-9-9-9-9-9-9-9-9-9-9-9-9-|


Gtr II (plays on top of Gtr I)

|-----------------------------------------------------------------|
|-----------------------------------------------------------------|
|-----------------------------------------------------------------|
|-4-4-4-4-4-4-4-4-4-4-4-7-4-7-4-7-9-9-9-9-9-9-9-9-9-9-9-4-4-7-7-4-|
|-4-4-4-4-4-4-4-4-4-4-4-7-4-7-4-7-9-9-9-9-9-9-9-9-9-9-9-4-4-7-7-4-|
|-4-4-4-4-4-4-4-4-4-4-4-7-4-7-4-7-9-9-9-9-9-9-9-9-9-9-9-4-4-7-7-4-|


Gtr II

|-------------------------------------------------------------|
|-------------------------------------------------------------|
|-------------------------------------------------------------|
|-4-4-4-4-4-4-4-4-7-7-7-7-7-7-7-7-9-9-9-9-9-9-9-9-11-11-11-11-|
|-4-4-4-4-4-4-4-4-7-7-7-7-7-7-7-7-9-9-9-9-9-9-9-9-11-11-11-11-|
|-4-4-4-4-4-4-4-4-7-7-7-7-7-7-7-7-9-9-9-9-9-9-9-9-11-11-11-11-|


Gtr I (Plays on top of Gtr II)

|-------------------------------------------------------------|
|-------------------------------------------------------------|
|-4~--------------7~--------------9~--------------11~---------|
|-------------------------------------------------------------|
|-------------------------------------------------------------|
|-------------------------------------------------------------|


Chorus - Gtr I & II

|-----------------------------------------------------------------|
|-----------------------------------------------------------------|
|-----------------------------------------------------------------|
|-4-4-4-4-4-4-4-4-7-7-7-7-2-2-2-2-4-4-4-4-4-4-4-4-9-9-9-9-2-2-2-2-|  X2
|-4-4-4-4-4-4-4-4-7-7-7-7-2-2-2-2-4-4-4-4-4-4-4-4-9-9-9-9-2-2-2-2-|
|-4-4-4-4-4-4-4-4-7-7-7-7-2-2-2-2-4-4-4-4-4-4-4-4-9-9-9-9-2-2-2-2-|


Gtr I

|-----------------------------------------------------------------|
|-----------------------------------------------------------------|
|-----------------------------------------------------------------|
|-4-4-4-4-4-4-4-4-4-4-4-4-4-4-4-4-9-9-9-9-9-9-9-9-9-9-9-9-9-9-9-9-|
|-4-4-4-4-4-4-4-4-4-4-4-4-4-4-4-4-9-9-9-9-9-9-9-9-9-9-9-9-9-9-9-9-|
|-4-4-4-4-4-4-4-4-4-4-4-4-4-4-4-4-9-9-9-9-9-9-9-9-9-9-9-9-9-9-9-9-|


Gtr II                                                    Gtr I
 
|------------------------------------|                           |---------------------------|
|------------------------------------|                           |-14~-12~-10~-9~-7-7-7-7<<<-|
|------------------------------------| Gtr I on top of Gtr II >> |---------------------------|
|-11-11-11-9-9-9-7-7-7-6-6-6-4-4-4-4-|                           |---------------------------|
|-11-11-11-9-9-9-7-7-7-6-6-6-4-4-4-4-|                           |---------------------------|
|-11-11-11-9-9-9-7-7-7-6-6-6-4-4-4-4-|                           |---------------------------|
  v  ^  v  v ^ v v ^ v v ^ v v v v v


Gtr II

|------------|
|------------|
|------------|
|-4-4--4444\-|
|-4-4--4444\-|
|-4-4--4444\-|
  v v  v^v^
            
Tabs too difficult? Try these video lessons and learn fast.




comments powered by Disqus
↑ Back to top | Tablatures and chords are parodies/interpretations of the original songs. You may use it for private study, scholarship, research or language learning purposes only