» » »

You Spin Me Right Round Tabs (ver.2)

Artists:  A B C D E F G H I J K L M N O P Q R S T U V W X Y Z # 

You Spin Me Right Round Tabs (ver.2)

Dope
Rating:
0/5 (0 votes)

Tabs too difficult? Try these video lessons and learn fast.
                You Spin Me Right Round by Dope
Dif.: 7

NOTE: Tune to Drop D ½ (Db Ab Db Gb Bb Eb)

Intro
Db|--2-2-2-2-5-5-------|
Ab|--0-0-0-0-3-3-5-5---|
Db|--------------5-5---|

Intro 2/Chorus
Db|-2-2-2-2-2-2-2-2-5-5-5-5----------
Ab|-0-0-0-0-0-0-0-0-3-3-3-3-5-5-5-5--
Db|-------------------------5-5-5-5--

Intro 2/Chorus (cont.)
Db|-2-2-2-2-2-2-2-2-7-7-7-7----------|
Ab|-0-0-0-0-0-0-0-0-5-5-5-5-5-5-5-5--|
Db|-------------------------5-5-5-5--|

Fill 1 (Gtr. 1)
Db|--7------5-----3-----2-----0-----2-2-2-2-2-2--|
Ab|--7------5-----3-----2-----0-----2-2-2-2-2-2--|
Db|--7------5-----3-----2-----0-----2-2-2-2-2-2--|
                                  Pm-------------|

Fill 2 (Gtr. 2)
Eb|--12^---10^-----------------------------------|
Bb|-----------------13^---12^---10^-10^-10^-10^--|
        ^---full step bends--^      ^half steps--^

Verse
Db|--------------|-%-|--5-7--X------|
Ab|--5-7--X------|-%-|--3-5--X(9x)--|
Db|--5-7--X(9x)--|-%-|--------------|

Verse Part 2 (Gtr. 1) ("All I know is that today…")
Db|-2-2-2-2-2-2-2-2-5-5-5-5-5-5-5-5--
Ab|-0-0-0-0-0-0-0-0-3-3-3-3-3-3-3-3--

Verse Part 2 (Gtr. 1) (cont.)
Db|-7-7-7-7-7-7-7-7-9-9-9-9-9-9-9-9--|
Ab|-5-5-5-5-5-5-5-5-7-7-7-7-7-7-7-7--|

Verse Part 2 (Gtr. 2)
Bb|--------------9----11----|
Gb|--9----11----------------|

Fill 2
Db|--2-2-2--|
Ab|--0-0-0--|

Bridge (Gtr. 1)
Db|-----------7-------|
Ab|--7--------5(16x)--|
Db|--7(16x)-----------|
    Pm

Song Structure: -
Intro
Intro 2
Fill 1 (Gtr. 1)/Fill 1 (Gtr. 2)
Verse ("I don’t wanna know your…")
Verse Part 2 (Gtr. 1)/Verse Part 2 (Gtr. 2)
Verse ("I set my sights on you…")
Verse Part 2 (Gtr. 1)/Verse Part 2 (Gtr. 2)
Chorus
Fill 3
Verse ("I don’t wanna be your…")
Verse Part 2 (Gtr. 1)/Verse Part 2 (Gtr. 2)
Chorus
Bridge
Verse Part 2 (Gtr. 1)/Verse Part 2 (Gtr. 2)
Chorus
Bridge
Fill 1 (Gtr. 1)/Fill 2 (Gtr. 2)

Alright there ya go. A nice cover by Dope. I don’t really have anything else to say 
about this one. Except enjoy. If you have any comments corrections or suggestions 
===========                You Spin Me Round
                    BAND: Dope
                TUNING: standard (E,A,D,G,B,E)
          
                  ...... = palm mute
          
          
               RIFF A:
          
              |-------------------|
              |-------------------|
              |-------------------|
              |-4-4-4-4--7-7--2-2-|
              |-4-4-4-4--7-7--2-2-|
              |-2-2-2-2--5-5--0-0-|
          
               RIFF B:
          
              |----------------------------------------------------------------------|
              |----------------------------------------------------------------------|
              |----------------------------------------------------------------------|
              |-4-4-4-4-4-4-4-4--7-7-7-7--2-2-2-2--4-4-4-4-4-4-4-4--9-9-9-9--2-2-2-2-|
              |-4-4-4-4-4-4-4-4--7-7-7-7--2-2-2-2--4-4-4-4-4-4-4-4--9-9-9-9--2-2-2-2-|
              |-2-2-2-2-2-2-2-2--5-5-5-5--0-0-0-0--2-2-2-2-2-2-2-2--7-7-7-7--0-0-0-0-|
                . . . . . . . .  . . . .  . . . .  . . . . . . . .  . . . .  . . . .
          
               RIFF C:
          
               guitar 1
          
              |--------------------------|---------------------|
              |--------------------------|---------------------|
              |--------------------------|---------------------|
              |--------------------------|---------------------|
              |-11^--9^--7^--6^--5^^^^---|-11-11--11-11-11--11-|
              |-9-^--7^--5^--4^--3^^^^---|-9--9---9--9--9---9--|
                                           .  .   .  .  .   .
               guitar 2
          
              |--------------------------|---------------------|
              |--------------------------|---------------------|
              |-17^--15^-13^-12^ 11^^^^--|---------------------|
              |--------------------------|---------------------|
              |--------------------------|-11-11--11-11-11--11-|
              |--------------------------|-9--9---9--9--9---9--|
                                           .  .   .  .  .   .
                              
               RIFF D: (each part two times)
          
              |--------------------|--------------------|
              |--------------------|--------------------|
              |--------------------|--------------------|
              |-5/-7--7-77-77-7777-|-7/-9--9-99-99-9999-|
              |-5/-7--7-77-77-7777-|-7/-9--9-99-99-9999-|
              |-3/-5--5-55-55-5555-|-5/-7--7-77-77-7777-|
                      . .. .. ....         . .. .. ....
          
               RIFF E:
          
               guitar 1
          
              |-------------------------------------------------------|
              |-------------------------------------------------------|
              |-------------------------------------------------------|
              |-44-4-444-4--77-7-777-7--99-9-999-9--1111-11-111111-11-|
              |-44-4-444-4--77-7-777-7--99-9-999-9--1111-11-111111-11-|
              |-22-2-222-2--55-5-555-5--77-7-777-7--9-9--9--9-9-9--9--|
                ..   ...    ..   ...    ..   ...    . .     . . .  
          
               guitar 2
          
              |-------------------------------------------------------|
              |-------------------------------------------------------|
              |-5^----------8^----------10^---------9^----------------|
              |-------------------------------------------------------|
              |-------------------------------------------------------|
              |-------------------------------------------------------|
                             
               RIFF F:
                             
              |------------------------------------------------------------|
              |------------------------------------------------------------|
              |------------------------------------------------------------|
              |-4-4-4-4-4-4-4-4-4-4-4-4-4-4-4/-7-7-7-7-7-7-7-7-7-7-7-7-7-7-|
              |-4-4-4-4-4-4-4-4-4-4-4-4-4-4-4/-7-7-7-7-7-7-7-7-7-7-7-7-7-7-|
              |-2-2-2-2-2-2-2-2-2-2-2-2-2-2-2/-5-5-5-5-5-5-5-5-5-5-5-5-5-5-|
          
               RIFF G: 
          
              |--------|
              |--------| 
              |--------|
              |-2--6/4-|
              |-2--6/4-|
              |-0--4/2-|
            
Tabs too difficult? Try these video lessons and learn fast.




comments powered by Disqus
↑ Back to top | Tablatures and chords are parodies/interpretations of the original songs. You may use it for private study, scholarship, research or language learning purposes only