» » »

You Spin Me Right Round Bass tabs (ver.1)

Artists:  A B C D E F G H I J K L M N O P Q R S T U V W X Y Z # 

You Spin Me Right Round Bass tabs (ver.1)

Dope
Rating:
0/5 (0 votes)

Hard to play? Try these video lessons and learn fast.
                Dope - You spin me round (like a record baby)
This is a correction of the tab submitted by Alex Forred.  I play a 5 string but you can do it on a four string you just might have to figure a few notes out by yourself.
 
|----------|
|----------|
|-----00---|
|-2222--00-|
|----------|

|-------------------------------------------------------
|-------------------------------------------------------
|---------0000-------------2222-------------------------
|-22222222----0000-22222222----0000-2222-0000-----------
|--------------------------------------------3333-2222--

|----------------|
|----------------|
|22222222--------|
|---------222222-|
|----------------|

|----------------| 
|----------------|
|---------02--02-|  2 times
|-02--02---------|
|----------------|
    Verse 1
|------------------------------------|
|------------------------------------|
|---------00000000-22222222-44444444-|
|-22222222---------------------------|
|------------------------------------|

     verse 2
|-----------------------------------|
|-----------------------------------|
|---------0000-------------2222-----|  2 times
|-22222222----0000-22222222----0000-|
|-----------------------------------|

|-----|
|-----|
|-----|
|-222-|
|-----|
|---------------------------------------------------|
|---------------------------------------------------|
|---------02--02--------00000000-22222222-444444444-|
|-02--02--------22222222----------------------------|
|---------------------------------------------------|

  Verse 2

|----------------------------------|
|----------------------------------|
|-----------------2222222222222----|
|-2222222222222222-----------------|
|------------------------------222-|

  Verse 1 

  Verse 2

|---------------------------------|
|---------------------------------|
|-----------------2222222222222---|
|-2222222222222222----------------|
|------------------------------22-|

|-----------------------|
|-----------------------|
|-------------2222------|
|-0-22-00---------------|
|--------33-22----------|

 That's the whole song.  You might have to listen to the song to get the timing right.  Have fun!  Enjoy!
            
Hard to play? Try these video lessons and learn fast. | Correct




comments powered by Disqus
↑ Back to top | Tablatures and chords are parodies/interpretations of the original songs. You may use it for private study, scholarship, research or language learning purposes only