» » »

Dope, You Spin Me Around Tabs (ver.1)

Artists:  A B C D E F G H I J K L M N O P Q R S T U V W X Y Z # 

You Spin Me Around Tabs (ver.1)

Dope Tabs
 Rating:
4/5 (4 votes)
You Spin Me Around lessons Tabs too difficult? Try these video lessons and learn fast
1
                           	TUNING: standard (E,A,D,G,B,E)
          
                  ...... = palm mute
          
          
               RIFF A:
          
              |-------------------|
              |-------------------|
              |-------------------|
              |-4-4-4-4--7-7--2-2-|
              |-4-4-4-4--7-7--2-2-|
              |-2-2-2-2--5-5--0-0-|
          
               RIFF B:
          
              |----------------------------------------------------------------------|
              |----------------------------------------------------------------------|
              |----------------------------------------------------------------------|
              |-4-4-4-4-4-4-4-4--7-7-7-7--2-2-2-2--4-4-4-4-4-4-4-4--9-9-9-9--2-2-2-2-|
              |-4-4-4-4-4-4-4-4--7-7-7-7--2-2-2-2--4-4-4-4-4-4-4-4--9-9-9-9--2-2-2-2-|
              |-2-2-2-2-2-2-2-2--5-5-5-5--0-0-0-0--2-2-2-2-2-2-2-2--7-7-7-7--0-0-0-0-|
                . . . . . . . .  . . . .  . . . .  . . . . . . . .  . . . .  . . . .
          
               RIFF C:
          
               guitar 1
          
              |--------------------------|---------------------|
              |--------------------------|---------------------|
              |--------------------------|---------------------|
              |--------------------------|---------------------|
              |-11^--9^--7^--6^--5^^^^---|-11-11--11-11-11--11-|
              |-9-^--7^--5^--4^--3^^^^---|-9--9---9--9--9---9--|
                                           .  .   .  .  .   .
               guitar 2
          
              |--------------------------|---------------------|
              |--------------------------|---------------------|
              |-17^--15^-13^-12^ 11^^^^--|---------------------|
              |--------------------------|---------------------|
              |--------------------------|-11-11--11-11-11--11-|
              |--------------------------|-9--9---9--9--9---9--|
                                           .  .   .  .  .   .
                              
               RIFF D: (each part two times)
          
              |--------------------|--------------------|
              |--------------------|--------------------|
              |--------------------|--------------------|
              |-5/-7--7-77-77-7777-|-7/-9--9-99-99-9999-|
              |-5/-7--7-77-77-7777-|-7/-9--9-99-99-9999-|
              |-3/-5--5-55-55-5555-|-5/-7--7-77-77-7777-|
                      . .. .. ....         . .. .. ....
          
               RIFF E:
          
               guitar 1
          
              |-------------------------------------------------------|
              |-------------------------------------------------------|
              |-------------------------------------------------------|
              |-44-4-444-4--77-7-777-7--99-9-999-9--1111-11-111111-11-|
              |-44-4-444-4--77-7-777-7--99-9-999-9--1111-11-111111-11-|
              |-22-2-222-2--55-5-555-5--77-7-777-7--9-9--9--9-9-9--9--|
                ..   ...    ..   ...    ..   ...    . .     . . .  
          
               guitar 2
          
              |-------------------------------------------------------|
              |-------------------------------------------------------|
              |-5^----------8^----------10^---------9^----------------|
              |-------------------------------------------------------|
              |-------------------------------------------------------|
              |-------------------------------------------------------|
                             
               RIFF F:
                             
              |------------------------------------------------------------|
              |------------------------------------------------------------|
              |------------------------------------------------------------|
              |-4-4-4-4-4-4-4-4-4-4-4-4-4-4-4/-7-7-7-7-7-7-7-7-7-7-7-7-7-7-|
              |-4-4-4-4-4-4-4-4-4-4-4-4-4-4-4/-7-7-7-7-7-7-7-7-7-7-7-7-7-7-|
              |-2-2-2-2-2-2-2-2-2-2-2-2-2-2-2/-5-5-5-5-5-5-5-5-5-5-5-5-5-5-|
          
               RIFF G: 
          
              |--------|
              |--------| 
              |--------|
              |-2--6/4-|
              |-2--6/4-|
              |-0--4/2-|
            
Submit corrections

comments powered by Disqus
↑ Back to top | Dope Tabs for You Spin Me Around. Lyrics for acoustic guitar and electric guitar. 1 Tablatures and chords are parodies/interpretations of the original songs. You may use it for private study, scholarship, research or language learning purposes only