>
 >
With Or Without You 1

With Or Without You 1 Guitar Tabs

Dope - With Or Without You 1 chords, tabs, tablatures, lyrics

Guitar lessons | Add/correct | Request | Top 50 tabs Artists:  A B C D E F G H I J K L M N O P Q R S T U V W X Y Z 0-9

With Or Without You 1 Guitar Tabs – Dope

CD, Sheet music, Poster

Do you like With Or Without You 1? Share with your friends now
Bass TabsTabsTabs v2
AIM : DopeFel0n4L1fe

Legend:
~         Ring
.         Palm-Mute
br        Bend-Release
/ and \   Slide

Intro
D|-----------------------------------------------------------|
A|-----------------------------------------------------------|
F|-11~~~-----------------------------------------------------|
C|------11~~~------------------------------------------------|
G|-----------11-12-11-12-11-12-11-12-11-12-11-12-11-12-11-12-|
C|-----------------------------------------------------------|

Pre-Verse
D|-----------------------------------------------------------|
A|-----------------------------------------------------------|
F|-----------------------------------------------------------|
C|-4-4-4-4-7-7-7-7-0-0-0-0-2-2-2-2-4-4-4-4-7-7-7-7-0-0-0-0-2-|
G|-4-4-4-4-7-7-7-7-0-0-0-0-2-2-2-2-4-4-4-4-7-7-7-7-0-0-0-0-2-|
C|-4-4-4-4-7-7-7-7-0-0-0-0-2-2-2-2-4-4-4-4-7-7-7-7-0-0-0-0-2-|
   . . . .         . . . . . . . . . . . . . . . . . . . . .

Verse
D|------------------------0----------------------------0-------|
A|----------2-----2-----2---2---2------2-----2-------2---2---2-|
F|--------2-----2-----2-------2------2-----2---2---2-------2---|
C|-4~~~-4-----4-----4--------------4-----4-------4-------------|
G|-4~~~--------------------------------------------------------|
C|-4~~~--------------------------------------------------------|
        . . . . . . . . . . . . .  . . . . . . . . . . . . . .

D|--------------------0--------------2-------4-------|
A|-----2-----2------2---2---2------2---2---2---2---2-|
F|---2-----2------2-------2------2-------2-------2---|
C|-4-----4------4--------------4---------------------|
G|---------------------------------------------------|
C|---------------------------------------------------|
   . . . . . . . . . . . . . . . . . . . . . . . . .

Pre-Chorus
D|-----------------------------------------------------------------|
A|-----------------------------------------------------------------|
F|-----------------------------------------------------------------|
C|-4-4-4-4-7-7-7-7-0-0-0-0-2-2-2-2-4-4-4-4-7-7-7-7-0-0-0-0-2-2-2-2-|
G|-4-4-4-4-7-7-7-7-0-0-0-0-2-2-2-2-4-4-4-4-7-7-7-7-0-0-0-0-2-2-2-2-|
C|-4-4-4-4-7-7-7-7-0-0-0-0-2-2-2-2-4-4-4-4-7-7-7-7-0-0-0-0-2-2-2-2-|
   . . . . . . . . . . . . . . . . . . . . . . . . . 

Chorus
D|-----------------------------------------|-
A|---------7---------5---------3---------5-|-
F|---------6---------4---------2---------4-|-
C|-4-4-4-4-4-2-2-2-2-2-0-0-0-0-0-2-2-2-2-2-|-
G|-4-4-4-4-4-2-2-2-2-2-0-0-0-0-0-2-2-2-2-2-|-
C|-4-4-4-4-4-2-2-2-2-2-0-0-0-0-0-2-2-2-2-2-|-
                                         ^ Omit 2nd time

Verse
D|------------------------0----------------------------0-------|
A|----------2-----2-----2---2---2------2-----2-------2---2---2-|
F|--------2-----2-----2-------2------2-----2---2---2-------2---|
C|-4~~~-4-----4-----4--------------4-----4-------4-------------|
G|-4~~~--------------------------------------------------------|
C|-4~~~--------------------------------------------------------|
        . . . . . . . . . . . . .  . . . . . . . . . . . . . .

D|--------------------0--------------2-------4-------|
A|-----2-----2------2---2---2------2---2---2---2---2-|
F|---2-----2------2-------2------2-------2-------2---|
C|-4-----4------4--------------4---------------------|
G|---------------------------------------------------|
C|---------------------------------------------------|
   . . . . . . . . . . . . . . . . . . . . . . . . .

Chorus
D|-----------------------------------------|-
A|---------7---------5---------3---------5-|-
F|---------6---------4---------2---------4-|-
C|-4-4-4-4-4-2-2-2-2-2-0-0-0-0-0-2-2-2-2-2-|-
G|-4-4-4-4-4-2-2-2-2-2-0-0-0-0-0-2-2-2-2-2-|-
C|-4-4-4-4-4-2-2-2-2-2-0-0-0-0-0-2-2-2-2-2-|-
                                         ^ Omit 2nd time

Solo
D|-17-16----17-16----16-17-17-16----17-16----16----|
A|-------17-------17-------------17-------17----16-|
F|-------------------------------------------------|
C|-------------------------------------------------|
G|-------------------------------------------------|
C|-------------------------------------------------|

D|-17-16----17-16----16-17-17-16----17-16-----19br-|
A|-------17-------17-------------17-------17-------|
F|-------------------------------------------------|
C|-------------------------------------------------|
G|-------------------------------------------------|
C|-------------------------------------------------|

Interlude (Clean w/Delay)
D|----------------|
A|----------------|
F|-7~~~7-6-7-6/-1-|
C|----------------|
G|----------------|
C|----------------|

Solo II (With chorus playing in background) (My favorite part to play in the song :D)
D|----------------------------------------------|
A|-------------------------12----12----/14--17--|
F|-11-13-11-13-14----14-11----11----11----------|
C|----------------14----------------------------|
G|----------------------------------------------|
C|----------------------------------------------|

Outro
D|------|
A|------|
F|------|
C|-4~~~~|
G|-4~~~~|
C|-4~~~~|





Comments


Popular Dope tabs & chords
Debonaire Bass Tabs
Everything Sucks 1 Bass Tabs
You Spin Me Right Round 1 Bass Tabs
Easier Chords
Die Mf Die Intro Tabs
Die Motha Fucka Die Tabs
Falling Away Tabs
I Am Nothing 1 Tabs
You Spin Me Right Round 3 Tabs
Sick Ukulele


Song lyrics



↑ Back to top | Tablatures and chords are parodies/interpretations of the original songs. You may use it for private study, scholarship, research or language learning purposes only
© 2014 AZChords.com Contact us | Privacy policy | DMCA | Add/correct tabs | Request tabs | Top 50 tabs