» » »

Dope, Thanks For Nothing Tabs (ver.1)

Artists:  A B C D E F G H I J K L M N O P Q R S T U V W X Y Z # 

Thanks For Nothing Tabs (ver.1)

Dope Tabs
 Rating:
4/5 (4 votes)
Thanks For Nothing lessons Tabs too difficult? Try these video lessons and learn fast
1
                ________________________________________________________________________________
--------------------------------------------------------------------------------
                            DOPE - THANKS FOR NOTHING
________________________________________________________________________________
--------------------------------------------------------------------------------


Hey Guys,
that's my first tab, I didn't find another good one so I decided to make
it on my own, so don't anger with me if it's not very good.
But I hope you like it cause I couldn't find any errors. Have fun!


Intro

e--------------------------------|
B--------------------------------|
G--------------------------------|    x2
D--------------------------------|
A----x-x-x----x-x-x--x--x--x-----|
D----x-x-x----x-x-x--x--x--x-----|

e---------------------------|
B---------------------------|
G---------------------------|   x2
D---------------------------|
A----0--x-0---x-x-x--x------|
D----0--x-0---x-x-x--x------|

Chorus

e----------------------------------------------------|
B----------------------------------------------------|
G----------14---14------9---9----7--7-9--7-----------|  x2
D---------- x--- x------x---x----x--x-x--x-----------|
A----------12---12------7---7----5--5-7--5-----------|
D----------------------------------------------------|

Verse

e--------------------------------------------------------|
B--------------------------------------------------------|
G--------------------------------------------------------|
D--------------------------------------------------------|
A---------0---x-x-x--x--x--x----x-x-x----x-x-x--x--x--x--|
D---------0---x-x-x--x--x--x----x-x-x----x-x-x--x--x--x--|

e--------------------------------------------------------|
B--------------------------------------------------------|
G--------------------------------------------------------|
D--------------------------------------------------------|
A----3----0---x-x-x--x--x--x----x-x-x----x-x-x--x--x--x--|
D----3----0---x-x-x--x--x--x----x-x-x----x-x-x--x--x--x--|

e--------------------------------------------------------------------------------|
B--------------------------------------------------------------------------------|
G--------------------------------------------------------------------------------|
D--------------------------------------------------------------------------------|
A----3----0---x-x-5--x--x--x----5--x--5----0h3--0---x-x-5--x--x--x----5--x--5--5-|
D----3----0---x-x-5--x--x--x----5--x--5----0h3--0---x-x-5--x--x--x----5--x--5--5-|

Pre-Chorus

e--------------------------------------|
B--------------------------------------|
G--------------------------------------|                x2
D--------------------------------------|
A---------8-10-8-5--12-10-7-10-7-5-----|
D----0---------------------------------|

Chorus
Pre-Chorus
Verse
Pre-Chorus
Chorus
Pre-Chorus
Verse
Pre-Chorus
Chorus

Verse #2

e-----------------------------------------------|
B-----------------------------------------------|
G-----------------------------------------------|       x4
D-----------------------------------------------|
A----0-0-0-0----3-3-3-3----5-5-5-5-3-5-5-5------|
D----0-0-0-0----3-3-3-3----5-5-5-5-3-5-5-5------|

Chorus
Verse
Chorus

Chorus #2

e-----------------------------------------------------------------------|
B-----------------------------------------------------------------------|
G----------14---14------9---9----7--7-----------------------------------|       x2
D---------- x--- x------x---x----x--x-----------------------------------|
A----------12---12------7---7----5--5------8-10-8-5--12-10-7-10-7-5-----|
D-------------------------------------0---------------------------------|

Verse #2




If you have any corrections or tips, send me a message!
(P.s.: Chorus, Pre-Chorus and Verse #2 are copied because i think they're right)
            
Submit corrections

comments powered by Disqus
↑ Back to top | Dope Tabs for Thanks For Nothing. Lyrics for acoustic guitar and electric guitar. 1 Tablatures and chords are parodies/interpretations of the original songs. You may use it for private study, scholarship, research or language learning purposes only