» » »

Sing Tabs (ver.1)

Artists:  A B C D E F G H I J K L M N O P Q R S T U V W X Y Z # 

Sing Tabs (ver.1)

Dope
Rating:
0/5 (0 votes)

Hard to play? Try these video lessons and learn fast.
                Intro/Chorus 
e|-----------------------------------------|
B|-----------------------------------------|
G|-----------------------------------------|
D|-----5-----------------------------------|
A|-5h7---7-5-------------------------------|
E|------------7---7h8p7--(Then Repeat Once)|

e|-----------------------------------------|
B|-----------------------------------------|
G|-----------------------------------------|
D|-----5-----------------------------------|
A|-5h7---7-5-------------------------------|
E|------------7---7h8p7---5-----5/7--------|

Verse 1 (Power Chords) REPEAT FOUR TIMES
e|-----------------------------------------|
B|-----------------------------------------|
G|-----------------------------------------|
D|-2-2--2-5-5------------------------------|
A|-0-0--0-3-3--5-5--5-3-3------------------|
E|-------------3-3--3-1-1------------------|

Verse 2 (Chords) REPEAT FOUR TIMES
   Am      C      G    F
e|-0-0--0-0-0--1-1--1-1-1------------------|
B|-1-1--1-1-1--0-0--0-1-1------------------|
G|-2-2--2-0-0--0-0--0-1-1------------------|
D|-2-2--2-2-2--0-0--0-3-3------------------|
A|-0-0--0-3-3--2-2--2-3-3------------------|
E|-0-0--0-0-0--3-3--3-1-1------------------|

Pre Chorus (Another Guitar Plays This Over The Chords)
e|-----------------------------------------|
B|-----------------------------------------|
G|-----------------------------------------|
D|-----------------------------------------|
A|-7---7---7---5--5------------------------|
E|--------------------7---7---7---5--5--3--|

e|-----------------------------------------|
B|-----------------------------------------|
G|-----------------------------------------|
D|-----------------------------------------|
A|-7---7---7---5--5------------------------|
E|--------------------7---7---7---8--8-----|  

Chorus (Play Two Times)
e|-----------------------------------------|
B|-----------------------------------------|
G|-----------------------------------------|
D|-----5-----------------------------------|
A|-5h7---7-5-------------------------------|
E|------------7---7h8p7--(Then Repeat Once)|

e|-----------------------------------------|
B|-----------------------------------------|
G|-----------------------------------------|
D|-----5-----------------------------------|
A|-5h7---7-5-------------------------------|
E|------------7---7h8p7---5-----5/7--------|

Verse 2 (Power Chords) REPEAT FOUR TIMES
e|-----------------------------------------|
B|-----------------------------------------|
G|-----------------------------------------|
D|-2-2--2-5-5------------------------------|
A|-0-0--0-3-3--5-5--5-3-3------------------|
E|-------------3-3--3-1-1------------------|

Verse 2 (Chords) REPEAT FOUR TIMES
   Am      C      G    F
e|-0-0--0-0-0--1-1--1-1-1------------------|
B|-1-1--1-1-1--0-0--0-1-1------------------|
G|-2-2--2-0-0--0-0--0-1-1------------------|
D|-2-2--2-2-2--0-0--0-3-3------------------|
A|-0-0--0-3-3--2-2--2-3-3------------------|
E|-0-0--0-0-0--3-3--3-1-1------------------|

Pre Chorus (Another Guitar Plays This Over The Chords)
e|-----------------------------------------|
B|-----------------------------------------|
G|-----------------------------------------|
D|-----------------------------------------|
A|-7---7---7---5--5------------------------|
E|--------------------7---7---7---5--5--3--|

e|-----------------------------------------|
B|-----------------------------------------|
G|-----------------------------------------|
D|-----------------------------------------|
A|-7---7---7---5--5------------------------|
E|--------------------7---7---7---8--8-----|

Chorus (Play Twice)
e|-----------------------------------------|
B|-----------------------------------------|
G|-----------------------------------------|
D|-----5-----------------------------------|
A|-5h7---7-5-------------------------------|
E|------------7---7h8p7--------------------|

e|-----------------------------------------|
B|-----------------------------------------|
G|-----------------------------------------|
D|-----5-----------------------------------|
A|-5h7---7-5-------------------------------|
E|------------7---7h8p7---5-----5/7--------|

Solo (Repeat Twice)
e|-----------------------------------------|
B|-6p5-5--6p5-5--5h6p5-5--5p3-3--3---------|
G|---------------------------------5-5-----|
D|-----------------------------------------|
A|-----------------------------------------|
E|-----------------------------------------|

e|-----------------------------------------|
B|-----------------------------------------|
G|-4h5p5-----------------------------------|
D|-------5---------------------------------|
A|-----------------------------------------|
E|-----------------------------------------|

Pre Chorus
e|-----------------------------------------|
B|-----------------------------------------|
G|---5-4-----5-4-----5-4-------------------|
D|-----------------------7-5-7-------------|
A|-7-------7-------7-----------7-----------|
E|-----------------------------------------|

e|-----------------------------------------|
B|-----------------------------------------|
G|---5-4-----5-4-----5-4-------------------|
D|-----------------------7-5-7-------------|
A|-7-------7-------7-----------------------|
E|-----------------------------------------|

Chorus (Play Twice)
e|-----------------------------------------|
B|-----------------------------------------|
G|-----------------------------------------|
D|-----5-----------------------------------|
A|-5h7---7-5-------------------------------|
E|------------7---7h8p7--------------------|

e|-----------------------------------------|
B|-----------------------------------------|
G|-----------------------------------------|
D|-----5-----------------------------------|
A|-5h7---7-5-------------------------------|
E|------------7---7h8p7---5-----5/7--------|
            
Hard to play? Try these video lessons and learn fast. | Correct




comments powered by Disqus
↑ Back to top | Tablatures and chords are parodies/interpretations of the original songs. You may use it for private study, scholarship, research or language learning purposes only