>
 >
Paranoia 2

Paranoia 2 Bass Tabs

Dope - Paranoia 2 chords, tabs, tablatures, lyrics

Guitar lessons | Add/correct | Request | Top 50 tabs Artists:  A B C D E F G H I J K L M N O P Q R S T U V W X Y Z 0-9

Paranoia 2 Bass Tabs – Dope

CD, Sheet music, Poster

Do you like Paranoia 2? Share with your friends now
Bass TabsBass Tabs v2Tabs
another tab sent by a friend

Band: Dope
Bass Player: Sloane Jentry
4 String Bass Tuned: B, E, A, D
or
5 String Bass Tuned: B, E, A, D, G

Proper easy to play. Rock on!


(0:13) - Intro II (Bass kicks in here)
D -----------------------------|
A -----------------------------|
E -----------------------------|
B --0-0-3-0-5--6-0-------------|


(0:18) - Tail I
D -----------------------------|
A -----------------------------|
E --5-5-5-5-5-8-7--------------|
B -----------------------------|


(0:20) - Intro II
D -----------------------------|
A -----------------------------|
E -----------------------------|
B --0-0-3-0-5--6-0-------------|


(0:24) - Tail II
D -----------------------------|
A -----------------------------|
E --5-7-5-7-5-8----------------|
B -----------------------------|


(0:26) - Verse I
D -----------------------------|
A -----------------------------|
E --7--------------------------|
B -----6--5--0-xxxxxxxxxxxxxx--|

(For the x's, just mute the string slightly and play quiet.)


(0:40) - Bridge I
D -----------------------------|
A -----------------------------|
E -----1-1---------------------|
B -3-3-----1--00-00-00-00-0-0--|


(0:46) - Chorus/Intro II
D -----------------------------|
A -----------------------------|
E -----------------------------|
B --0-0-3-0-5--6-0-------------|

(0:51) - Tail I
D -----------------------------|
A -----------------------------|
E --5-5-5-5-5-8-7--------------|
B -----------------------------|


(0:53) - Chorus/Intro II


(0:58) - Tail II
D -----------------------------|
A -----------------------------|
E --5-7-5-7-5-8----------------|
B -----------------------------|

(1:00) Rest

(1:06) - Verse I
D -----------------------------|
A -----------------------------|
E --7--------------------------|
B -----6--5--0-xxxxxxxxxxxxxx--|

(1:19) - Bridge I (x2)
D -----------------------------|
A -----------------------------|
E -----1-1---------------------|
B -3-3-----1--00-00-00-00-0-0--|

(1:32) - Chorus/Intro II

- Tail I
- Tail II

(1:46) - Bridge III
D ------------------------------|
A ------------------------------|
E ------------------------------|
B -0-0---0-0--------------------| Repeat as necessary

(2:00) - Rest

(2:06) - Chorus/Intro II

(2:12) - Tail II

(2:19) - Tail I

(2:25) - Tail II

(2:32) - Tail I

(2:39) - Tail II





Comments


Popular Dope tabs & chords
Paranoia Bass Tabs
Sick 2 Bass Tabs
Addiction Tabs
Bitch 2 Tabs
Debonaire Tabs
Everything Sucks 2 Tabs
I'm Back Tabs
One Fix 1 Tabs
Spin Me Round Tabs
Easier Ukulele


Song lyrics



↑ Back to top | Tablatures and chords are parodies/interpretations of the original songs. You may use it for private study, scholarship, research or language learning purposes only
© 2014 AZChords.com Contact us | Privacy policy | DMCA | Add/correct tabs | Request tabs | Top 50 tabs