» » »

Dope, One Fix Tabs (ver.2)

Artists:  A B C D E F G H I J K L M N O P Q R S T U V W X Y Z # 

One Fix Tabs (ver.2)

Dope Tabs
 Rating:
4/5 (4 votes)
One Fix lessons Tabs too difficult? Try these video lessons and learn fast
1
                Dif.: 6

NOTE: Tune to Drop D (D A D G B E)

Intro 1/Chorus
D|--7-7-7-7--10-10-10-10--5-5-5--13-13-13-13--|
A|--7-7-7-7--10-10-10-10--5-5-5--13-13-13-13--|
D|--7-7-7-7--10-10-10-10--5-5-5--13-13-13-13--|

Intro 2 
D|--7-7-7-5--7-7-7-4--7--8--7--5-7-7-7-5--|
A|--7-7-7-5--7-7-7-4--7--8--7--5-7-7-7-5--|
D|--7-7-7-5--7-7-7-4--7--8--7--5-7-7-7-5--|

Verse ("And I know what they….")
D|-7-7-7-7--10-10-10-10--13-13-13--7-7-7--5---|
A|-7-7-7-7--10-10-10-10--13-13-13--7-7-7--5---|
D|-7-7-7-7--10-10-10-10--13-13-13--7-7-7--5---|

Fill (Gtr. 2)
e|---------------------------------21^--|
                                    ^ ½ step

Bridge
D|-5-7--5-7-8-7-5-7--5-7--5-7-8-7-5-7--10-7--
A|-5-7--5-7-8-7-5-7--5-7--5-7-8-7-5-7--10-7--
D|-5-7--5-7-8-7-5-7--5-7--5-7-8-7-5-7--10-7--

Bridge (cont.)
D|--5-7-8-7-5-7--5-7--5-7-8-7-5-7--|
A|--5-7-8-7-5-7--5-7--5-7-8-7-5-7--|
D|--5-7-8-7-5-7--5-7--5-7-8-7-5-7--|

End
D|--7------------------------------------------------------------\\\--|
A|--7------------------------------------------------------------\\\--|
D|--7------------------------------------------------------------\\\--|

Song Structure: -
Intro 1
Intro 2
Feedback w/ bass and drums
Verse
Chorus
Intro 1
Bass ***
Verse
Chorus
Intro 2 (Gtr. 1)/Fill (Gtr. 2)
Bridge
Chorus
Intro 2
End
            
Submit corrections

comments powered by Disqus
↑ Back to top | Dope Tabs for One Fix. Lyrics for acoustic guitar and electric guitar. 1 Tablatures and chords are parodies/interpretations of the original songs. You may use it for private study, scholarship, research or language learning purposes only