» » »

Dope, Nothing For Me Here Bass tabs (ver.1)

Artists:  A B C D E F G H I J K L M N O P Q R S T U V W X Y Z # 

Nothing For Me Here Bass tabs (ver.1)

Dope Tabs
 Rating:
4/5 (4 votes)
Nothing For Me Here lessons Tabs too difficult? Try these video lessons and learn fast
                Dope - Nothing For Me Here

G|---------------------------------|
D|---------------------------------|
A|---------------------------------|
E|-------------------------12\-----|

Intro/Chorus x2
G|---------------------------------|---------------------------------|
D|---------------------------------|---------------------------------|
A|-------------------------3---4---|-----3---4-------------------1---|
E|-1---1-1-2---1-------0-----------|-------------4-------1---4-------|

G|---------------------------------|---------------------------------|
D|---------------------------------|---------------------------------|
A|-------------------------3---4---|-----3---4-----------------------|
E|-1---1-1-2---1-------0-----------|-------------2~------2---2---2---|

Verse x4
G|---------------------------------|---------------------------------|
D|---------------------------------|---------------------------------|
A|-------------------------3---4---|-----3---4-------------------1---|
E|-0---1---2---1-------0-----------|-------------4-------1---4-------|

G|---------------------------------|---------------------------------|
D|---------------------------------|---------------------------------|
A|-------------------------3---4---|-----3---4-----------------------|
E|-0---1---2---1-------0-----------|-------------2~------2---2---2---|

Chorus x2
Verse x4
Chorus x4

Bridge
G|---------------------------------|---------------------------------|
D|---------------------------------|---------------------------------|
A|---------------------------------|---------------------------------|
E|---------------------------------|-----------------------0h12\-----|

G|---------------------------------|---------------------------------|
D|*--------------------------------|---------------------------------|
A|*4---4---4---4---4---4---4---4---|-4---4---4---4---4---4---4---4---|
E|---------------------------------|---------------------------------|

G|---------------------------------|---------------------------------|
D|---------------------------------|---------------------------------|
A|-4---4---4---4---4---4---4---4---|-4---4---4---4-------4-----------|
E|---------------------------------|-----------------6-------6---4---|

G|---------------------------------|---------------------------------|
D|---------------------------------|---------------------------------|
A|---------------------------------|---------------------------------|
E|-1---1---1---1---1---1---1---1---|-1---1---1---1---1---1---1---1---|
                                                                rpt x2
G|---------------------------------|---------------------------------|
D|---------------------------------|--------------------------------*|
A|---------------------------------|--------------------------------*|
E|-1---1---1---1---1---1---1---1---|-1---1---1---1---2---1---2---4---|

Guitar Solo
G|---------------------------------|---------------------------------|
D|---------------------------------|---------------------------------|
A|-4-4-4-4-4-4-4-4-4-4-4-4-4-4-4-4-|-4-4-4-4-4-4-4-4-4-4-4-4-4-4-4-4-|
E|---------------------------------|---------------------------------|

G|---------------------------------|---------------------------------|
D|---------------------------------|---------------------------------|
A|-4-4-4-4-4-4-4-4-4-4-4-4-4-4-4-4-|-4-4-4-4-4-4-4-4-4-4-4-4-4-4-4-4-|
E|---------------------------------|---------------------------------|

G|---------------------------------|---------------------------------|
D|---------------------------------|---------------------------------|
A|---------------------------------|---------------------------------|
E|-0-0-0-0-0-0-0-0-0-0-0-0-0-0-0-0-|-0-0-0-0-0-0-0-0-0-0-0-0-0-0-0-0-|

G|---------------------------------|---------------------------------|
D|---------------------------------|---------------------------------|
A|---------------------------------|---------------------------------|
E|-0-0-0-0-0-0-0-0-0-0-0-0-0-0-0-0-|-0-0-0-0-0-0-0-0-0-0-0-0-0-0-0-0-|

Interlude
G|---------------------------------|---------------------------------|
D|---------------------------------|---------------------------------|
A|---------------------------------|---------------------------------|
E|-1~------------------------------|-------------------------12\-----|

Chorus x7
End Note
G|---------------------------------|
D|---------------------------------|
A|---------------------------------|
E|-1-------------------------------|
            
Submit corrections

comments powered by Disqus
↑ Back to top | Dope Bass for Nothing For Me Here. Lyrics for acoustic guitar and electric guitar. Tablatures and chords are parodies/interpretations of the original songs. You may use it for private study, scholarship, research or language learning purposes only