» » »

Dope, No Chance Tabs (ver.1)

Artists:  A B C D E F G H I J K L M N O P Q R S T U V W X Y Z # 

No Chance Tabs (ver.1)

Dope Tabs
 Rating:
4/5 (4 votes)
No Chance lessons Tabs too difficult? Try these video lessons and learn fast
1
                

------------------------------------------------------------------------------|
------------------------------------------------------------------------------|
------------------------------------------------------------------------------|
-4--7--2-4-2-4--7--2---4--7--2-4-2-4--10--4--7--2-4-2-4--5--------------------|
-4--7--2-4-2-4--7--2---4--7--2-4-2-4--10--4--7--2-4-2-4--5-----4--------------|
-2--5--0-2-0-2--5--0---2--5--0-0-0-0--8---2--5--0-2-0-0--7--2-----2--0--2--2--|
 This song is played one whole step down from standard tuning.  Play this

------------------------------------------------------------------------------|
------------------------------------------------------------------------------|
------------------------------------------------------------------------------|
------------------------------------------------------------------------------|
-4----------------------------------------------------------------------------|
---2--0--2--2--3--2--0--------------------------------------------------------|
 part over and over for the intro and chorus, and then softly for the verses

------------------------------------------------------------------------------|
------------------------------------------------------------------------------|
------------------------------------------------------------------------------|
------------------------------------------------------------------------------|
------------------------------------------------------------------------------|
------------------------------------------------------------------------------|
 and bridge.  Have fun!
            
Submit corrections

comments powered by Disqus
↑ Back to top | Dope Tabs for No Chance. Lyrics for acoustic guitar and electric guitar. 1 Tablatures and chords are parodies/interpretations of the original songs. You may use it for private study, scholarship, research or language learning purposes only