» » »

Dope, Motivation Tabs (ver.1)

Artists:  A B C D E F G H I J K L M N O P Q R S T U V W X Y Z # 

Motivation Tabs (ver.1)

Dope Tabs
Rating:
0/5 (0 votes)
Hard to play? Try these video lessons and learn fast.
                Motivation by Dope
Tuning: Drop Db (C# G# C# F# A# D#)

Chorus
D#|------------|-------------|
A#|------------|-------------|
F#|----------5-|-------5-5-8-|
C#|-0--xx-xx-5-|-0--xx-5-5-8-|
G#|-0--xx-xx-3-|-0--xx-3-3-6-|
C#|-0--xx-xx---|-0--xx-------|

Verse part 1
D#|-------------|
A#|-------------|
F#|-------------|
C#|-------------|
G#|-------------|
C#|-0--0--0-1-0-|

Verse part 2
D#|-----------------------------|
A#|-----------------------------|
F#|-----------------------------|
C#|-----------------------------|
G#|-----------------------------|
C#|-0-0-1-00-00-1-0-0-0-1-00-00-|

Interlude
D#|-----------|
A#|-----------|
F#|-----------|
C#|-----------|
G#|-----------|
C#|-0-1-0-1-0-|

Song Structure
Keyboard + Drums
Chorus
Verse part 1
Verse part 2
Chorus
Verse part 1
Verse part 2
Chorus
Interlude
Verse part 2
Verse No Guitar
Verse part 1
Chorus
Verse part 2
            

comments powered by Disqus
↑ Back to top | Dope Tabs for Motivation. Lyrics for acoustic guitar and electric guitar. Tablatures and chords are parodies/interpretations of the original songs. You may use it for private study, scholarship, research or language learning purposes only