» » »

Kimberly Ghost Tabs (ver.1)

Artists:  A B C D E F G H I J K L M N O P Q R S T U V W X Y Z # 

Kimberly Ghost Tabs (ver.1)

Dope
Rating:
0/5 (0 votes)

Hard to play? Try these video lessons and learn fast.
                ok here we go. song is in dropped d. 

~intro-mostly drums but there is a guitar that comes in and plays this really quick
D-2-2--2-2--2-2--2-2--
A-2-2--2-2--2-2--2-2--
D-2-2--2-2--2-2--2-2--

~pre-chorus~(no guitar during vese, only synth, bass and drums)

D--2~~~------5~~~-----
A--2~~~------5~~~-----
D--2~~~------5~~~-----

~chorus~

D--2-2--x2-2--x2-2--x2-2--x5-5--x5-5--x5-5--x5-5--
A--2-2--x2-2--x2-2--x2-2--x5-5--x5-5--x5-5--x5-5--
D--2-2--x2-2--x2-2--x2-2--x5-5--x5-5--x5-5--x5-5--

fill-im not 100% percent positive on this but it sounds ok
D---------------------
A---------------------
D--2-2-2h5p2-2/7-7-7^-

bridge-(this is also played for the ending of the song)
D--2-2--
A--2-2--
D--2-2--
            
Hard to play? Try these video lessons and learn fast. | Correct




comments powered by Disqus
↑ Back to top | Tablatures and chords are parodies/interpretations of the original songs. You may use it for private study, scholarship, research or language learning purposes only