» » »

Jenny's Cryin' Bass tabs (ver.1)

Artists:  A B C D E F G H I J K L M N O P Q R S T U V W X Y Z # 

Jenny's Cryin' Bass tabs (ver.1)

Dope
Rating:
0/5 (0 votes)

Hard to play? Try these video lessons and learn fast.
                Intro 1.
G:------:
D:------:
A:------:
E:-6-6~-:


Verse 1.
G:------------------------:
D:------------------------: x2
A:------------------------:
E:-7-7-7-7-7-7-5-5-5-5-5-5:

Pre-chorus.
G:--------------------------:
D:--------------------------: x2
A:--------------------------:
E:-7~--5~----7-7-7-7-5-5-5-5:

Chorus.
G:------------------------------------------------:
D:------------------------------------------------: x2
A:------------------------------------------------:
E:-7-7-7-7-7-7-5-5-5-5-5-5-3-3-3-3-3-3-5-5-5-5-5-5:

Verse 2 (1:01).
G:-----------------------:
D:-----------------------: x2
A:-----------------------:
E:-7-7--7-7-7--7-7--7-7-7:


Verse 2 (1:14).
G:------------------------:
D:------------------------: x2
A:------------------------:
E:-7-7-7-7-7-7-5-5-5-5-5-5:


Repeat pre-chorus.
Repeat chorus.

Bridge 1.
G:-----------------------------:    :----------------:
D:-----------------------------: x3 :----------------:
A:-----------------------------:    :----------------:
E:-7-7-7-7-7~-7-7-7-0-0-0-0-0-0:    :-7-7-7-7-7-7-7-7:

Bridge 2 (After pause).
G:------------------------------------------:
D:------------------------------------------: x4
A:------------------------------------------:
E:-7-7-7-7-7-7-7-7-7-7-7-5-5-5-9-9-9-9-9-9-9:

G:------------------------------------------:
D:------------------------------------------:
A:------------------------------------------:
E:-7-7-7-7-7-7-7-7-7-7-7-7-7-7-7-7-7-7-7-7-7:

Repeat chorus x4.
Repeat bridge 1 x2.
            
Hard to play? Try these video lessons and learn fast. | Correct




comments powered by Disqus
↑ Back to top | Tablatures and chords are parodies/interpretations of the original songs. You may use it for private study, scholarship, research or language learning purposes only