» » »

Dope, Intervention Tabs (ver.1)

Artists:  A B C D E F G H I J K L M N O P Q R S T U V W X Y Z # 

Intervention Tabs (ver.1)

Dope Tabs
 Rating:
4/5 (4 votes)
Intervention lessons Tabs too difficult? Try these video lessons and learn fast
                Dif.: 7

NOTE: Tune to Drop D (D A D G B E)

Intro 1
D|-0-3-0-0-3-5-6-10--|-%-|
A|-0-3-0-0-3-5-6-10--|-%-|
D|-0-3-0-0-3-5-6-10--|-%-|

Intro 2
D|-0-3-0-3-0-3-5-6--|
A|-0-3-0-3-0-3-5-6--|
D|-0-3-0-3-0-3-5-6--|

Verse ("You’d like to take…")
D|-0-3-0-3-0---|
A|-0-3-0-3-0---|
D|-0-3-0-3-0---|

Chorus ("Somebody showed me…")
D|--3-------------5----------------6-5--|
A|--3-------------5----------------6-5--|
D|--3-------------5----------------6-5--|

Bridge/Verse 3 (Gtr. 1)
D|-0-3-0-3-0-----------|
A|-0-3-0-3-0-----------|
D|-0-3-0-3-0-----------|

Bridge/Verse 3 (Gtr. 2) (clean)
D|--------------XXXX--|
A|--------------XXXX--|
D|--------------XXXX--|

Solo - I have no idea and I hate solos

Song Structure: -
Intro 1
Intro 2
Verse
Intro 2
Verse ("Yeah man I’m doing..")
Intro 2
Chorus
Intro 2
Chorus ("My mother warned me…")
Intro 2
Bridge (Gtr. 1)/Bridge (Gtr. 2)
Verse (Gtr. 1)/Verse (Gtr. 2)
Intro 2
Bridge (Gtr. 1)/Bridge (Gtr. 2)
Verse (Gtr. 1)/Verse (Gtr. 2)
Intro 2
Verse (Gtr. 1)/Verse (Gtr. 2)
Intro 2
Chorus
Intro 2
Chorus
Verse (w/o lyrics)
Intro 2 (Gtr. 1)/Solo (Gtr. 2)
Chorus
Intro 2 (Gtr. 1)/Solo (Gtr. 2)
Chorus (Gtr. 1)/Solo (Gtr. 2)
Intro 2 (Gtr. 1)/Solo (Gtr. 2)
Verse (w/o lyrics)
            
Submit corrections

comments powered by Disqus
↑ Back to top | Dope Tabs for Intervention. Lyrics for acoustic guitar and electric guitar. Tablatures and chords are parodies/interpretations of the original songs. You may use it for private study, scholarship, research or language learning purposes only