>
 >
I Am 1

I Am 1 Guitar Tabs

Dope - I Am 1 chords, tabs, tablatures, lyrics

Guitar lessons | Add/correct | Request | Top 50 tabs Artists:  A B C D E F G H I J K L M N O P Q R S T U V W X Y Z 0-9

I Am 1 Guitar Tabs – Dope

CD, Sheet music, Poster

Do you like I Am 1? Share with your friends now
TabsTabs v2Tabs v3
Guitarist:Tripp Eisen
standard tuning            b=bend    ~=vibrato

G|-3||-3x3x3--9--9--9--9-8-3x3x3--9--9--9--9-13|
D|-4||-4x4x4-10-10-10-10-9-4x4x4-10-10-10-10-14|
A|-4||-4x4x4-10-10-10-10-9-4x4x4-10-10-10-10-14|
E|-2||-2x2x2--8--8--8--8-7-2x2x2--8--8--8--8-12|

G|-xx-xx-xx-x-xx-xx-xx-xx13||1-1-3-1-1-1-1-3-6-1-1-3-1-1-1-1-3-13|
D|-xx-xx-xx-x-xx-xx-xx-xx14||2-2-4-2-2-2-2-4-7-2-2-4-2-2-2-2-4-14|2x
A|-xx-xx-xx-x-xx-xx-xx-xx14||2-2-4-2-2-2-2-4-7-2-2-4-2-2-2-2-4-14|
E|-xx-xx-xx-x-xx-xx-xx-xx12||0-0-2-0-0-0-0-2-5-0-0-2-0-0-0-0-2-12|

G|-3-3--9--9-8-8-6-6-8-6-3-3--9--9-8-8-6-6-13|
D|-4-4-10-10-9-9-7-7-9-7-4-4-10-10-9-9-7-7-14|
A|-4-4-10-10-9-9-7-7-9-7-4-4-10-10-9-9-7-7-14|
E|-2-2--8--8-7-7-5-5-7-5-2-2--8--8-7-7-5-5-12|

B|-14-14-14-|
G|-16-16b16b|just do this a bunch of times

solo
E|-------------------------------------------------------------------------------|
B|----------------------------------------------9-11-14-14-13-17-9---------------|
G|-------------------------------------------10--------------------10-8\-----11--|
D|-10p7---10p7---10p7---10p7---10p7-----1/10----------------------------1/10-----|
A|------9------9------9------9------9-7\----------------------------------------9|

B|-14-14-14-14-14-14-14-14-14-14-14-14-13-17-17b17b17-17b17b17-17b17b17-17b17b17~|
G|-16-16b16b16-16b16b16-16b16b16-16b16b15b---------------------------------------|





Comments


Popular Dope tabs & chords
Kimberly's Ghost 1 Bass Tabs
Nothing For Me Here Bass Tabs
One Fix Bass Tabs
Take Your Best Shot 2 Bass Tabs
You Spin Me Right Round 1 Bass Tabs
Pig Society Chords
Dirty World Tabs
Dream Tabs
Motivation Tabs
Spine For You 1 Tabs


Song lyrics



↑ Back to top | Tablatures and chords are parodies/interpretations of the original songs. You may use it for private study, scholarship, research or language learning purposes only
© 2014 AZChords.com Contact us | Privacy policy | DMCA | Add/correct tabs | Request tabs | Top 50 tabs