» » »

Fuck The World Tabs (ver.1)

Artists:  A B C D E F G H I J K L M N O P Q R S T U V W X Y Z # 

Fuck The World Tabs (ver.1)

Dope
Rating:
4/5 (1 vote)

Hard to play? Try these video lessons and learn fast.
                You may have to listen to the song for timings on parts but its easy




Intro (drums for a bit the guitar comes in)

|---------------|
|---------------|
|---------------| x3
|---0--2--------|
|---0--2--------|
|---0--2--------|

 Chorus

              x3            then 
|-----------------|-------------------|
|-----------------|-------------------|
|-----------------|-------------------| x4
|--2--2-2-2--8-8--|--2--1--0--1-------|
|--2--2-2-2--8-8--|--2--1--0--1-------|
|--2--2-2-2--8-8--|--2--1--0--1-------|

 Verse
       x3
|---------|---|
|---------|---|
|---------|---|
|---0--2--|-2-|
|---0--2--|-2-|
|---0--2--|-2-|

 Pre-Chorus
             x3             then
|-----------------|----------------|
|-----------------|----------------|
|-----------------|----------------| x2
|--2--2-2-2--1-0--|--2--2-2-2--8-8-|
|--2--2-2-2--1-0--|--2--2-2-2--8-8-|
|--2--2-2-2--1-0--|--2--2-2-2--8-8-|

 Chorus
              x3             then
|----------------|-------------------|
|----------------|-------------------|
|----------------|-------------------| x4
|--2--2-2-2--8-8-|--2--1--0--1-------|
|--2--2-2-2--8-8-|--2--1--0--1-------|
|--2--2-2-2--8-8-|--2--1--0--1-------|

Verse
       x4   then
|---------|-----|
|---------|-----|
|---------|-----|
|---0--2--|--2--|
|---0--2--|--2--|
|---0--2--|--2--|

Pre-Chorus
             x3             then
|-----------------|----------------|
|-----------------|----------------|
|-----------------|----------------| x2
|--2--2-2-2--1-0--|--2--2-2-2--8-8-|
|--2--2-2-2--1-0--|--2--2-2-2--8-8-|
|--2--2-2-2--1-0--|--2--2-2-2--8-8-|

Chorus
              x3             then
|----------------|-------------------|
|----------------|-------------------|
|----------------|-------------------| x4
|--2--2-2-2--8-8-|--2--1--0--1-------|
|--2--2-2-2--8-8-|--2--1--0--1-------|
|--2--2-2-2--8-8-|--2--1--0--1-------|


 I don't know the solo but the backround guitar is the same as chours


 Bridge (bass for a little and then guitar)

        x4   then
|----------|-----|
|----------|-----|
|----------|-----|
|---0--2---|--2--|
|---0--2---|--2--|
|---0--2---|--2--|


Chorus
              x3             then
|----------------|-------------------|
|----------------|-------------------|
|----------------|-------------------| x4
|--2--2-2-2--8-8-|--2--1--0--1-------|
|--2--2-2-2--8-8-|--2--1--0--1-------|
|--2--2-2-2--8-8-|--2--1--0--1-------|

Outro

|------------|
|------------|
|------------|
|--2--2--2---|
|--2--2--2---|
|--2--2--2---|

 (hold the last note)
            
Hard to play? Try these video lessons and learn fast. | Correct




comments powered by Disqus
↑ Back to top | Tablatures and chords are parodies/interpretations of the original songs. You may use it for private study, scholarship, research or language learning purposes only