>
 >
Dirty World

Dirty World Guitar Tabs

Dope - Dirty World chords, tabs, tablatures, lyrics

Guitar lessons | Add/correct | Request | Top 50 tabs Artists:  A B C D E F G H I J K L M N O P Q R S T U V W X Y Z 0-9

Dirty World Guitar Tabs – Dope

CD, Sheet music, Poster

Do you like Dirty World? Share with your friends now
Tabs
Couldn't find this tab anywhere on the net so I tabbed it myself.

Feel free to use for a Guitar Pro tab, but please credit me.

Drop D may not be the tuning they play in but you can play the
whole song in it.

-----------------------------------------------------------------
-----------------------------------------------------------------

Tuning: Drop D

Intro:
e|---------------------------------------------------------------|
B|---------------------------------------------------------------|
G|---------------------------------------------------------------|
D|--12-10-12--7b-7-8-7-8--5b-3-5-3-5--3b--------13-------15-12---|
A|--12-10-12-----7-8-7-8-----3-5-3-5-----------------------------|
D|--12-10-12-----7-8-7-8-----3-5-3-5------12-13----13-15---------| 

e|---------------------------------------------------------------|
B|---------------------------------------------------------------|
G|---------------------------------------------------------------|
D|--12-10-12--7b-7-8-7-8--5b-3-5-3-5--3b--------13-------15-12---|
A|--12-10-12-----7-8-7-8-----3-5-3-5-----------------------------|
D|--12-10-12-----7-8-7-8-----3-5-3-5------12-13----13-15---------|

Verse:
     
                 Baby what you do to me...
e|---------------------------------------------------------------|
B|---------------------------------------------------------------|
G|---------------------------------------------------------------|
D|--12--12--12--6-0---------------------12--12--12--6-0--3-0-----|
A|--12--12--12--6-0---------------------12--12--12--6-0--3-0-----|
D|--12--12--12--6-0---------------------12--12--12--6-0--3-0-----|
                
                 I'm addicted to the way you move...
e|---------------------------------------------------------------|
B|---------------------------------------------------------------|
G|---------------------------------------------------------------|
D|--12--12--12--6-0---------------------12--12--12--6-0--3-0-----|
A|--12--12--12--6-0---------------------12--12--12--6-0--3-0-----|
D|--12--12--12--6-0---------------------12--12--12--6-0--3-0-----|

 I wanna touch you...
e|---------------------------------------------------------------|
B|---------------------------------------------------------------|
G|---------------------------------------------------------------|
D|---------------------------------------------------------------|
A|---------------------------------------------------------------|
D|--12~-----------------20~--------------------------------------|

Chorus:

 'Cause it's a dirty world...
e|---------------------------------------------------------------|
B|---------------------------------------------------------------|
G|---------------------------------------------------------------|
D|--12-10-12--7b-7-8-7-8--5b-3-5-3-5--3b--------13-------15-12---|
A|--12-10-12-----7-8-7-8-----3-5-3-5-----------------------------|
D|--12-10-12-----7-8-7-8-----3-5-3-5------12-13----13-15---------|
 
 ...dirty girl...
e|---------------------------------------------------------------|
B|---------------------------------------------------------------|
G|---------------------------------------------------------------|
D|--12-10-12--7b-7-8-7-8--5b-3-5-3-5--3b--------13-------15-12---|
A|--12-10-12-----7-8-7-8-----3-5-3-5-----------------------------|
D|--12-10-12-----7-8-7-8-----3-5-3-5------12-13----13-15---------|

 ...dirty world...
e|---------------------------------------------------------------|
B|---------------------------------------------------------------|
G|---------------------------------------------------------------|
D|--12-10-12-------------------12-10-12--------------------------|
A|--12-10-12-------------------12-10-12--------------------------|
E|--12-10-12-------------------12-10-12--------------------------|

Verse:

                    I wanna taste you...
e|---------------------------------------------------------------|
B|---------------------------------------------------------------|
G|---------------------------------------------------------------|
D|--12--12--12--6-0---------------------12--12--12--6-0--3-0-----|
A|--12--12--12--6-0---------------------12--12--12--6-0--3-0-----|
D|--12--12--12--6-0---------------------12--12--12--6-0--3-0-----|

                 ...I'm addicted to your fantasy...
e|---------------------------------------------------------------|
B|---------------------------------------------------------------|
G|---------------------------------------------------------------|
D|--12--12--12--6-0-3-0-----------------12--12--12--6-0--3-0-----|
A|--12--12--12--6-0-3-0-----------------12--12--12--6-0--3-0-----|
D|--12--12--12--6-0-3-0-----------------12--12--12--6-0--3-0-----|

                          
e|---------------------------------------------------------------|
B|---------------------------------------------------------------|
G|---------------------------------------------------------------|
D|---------------------------------------------------------------|
A|---------------------------------------------------------------|
D|--12~-----------------20~--------------------------------------|

Chorus:

  'Cause it's a dirty world...
e|---------------------------------------------------------------|
B|---------------------------------------------------------------|
G|---------------------------------------------------------------|
D|--12-10-12--7b-7-8-7-8--5b-3-5-3-5--3b--------13-------15-12---|
A|--12-10-12-----7-8-7-8-----3-5-3-5-----------------------------|
D|--12-10-12-----7-8-7-8-----3-5-3-5------12-13----13-15---------|
 
   And she's a dirty girl...
e|---------------------------------------------------------------|
B|---------------------------------------------------------------|
G|---------------------------------------------------------------|
D|--12-10-12--7b-7-8-7-8--5b-3-5-3-5--3b--------13-------15-12---|
A|--12-10-12-----7-8-7-8-----3-5-3-5-----------------------------|
D|--12-10-12-----7-8-7-8-----3-5-3-5------12-13----13-15---------|

    Dirty world...
e|---------------------------------------------------------------|
B|---------------------------------------------------------------|
G|---------------------------------------------------------------|
D|--12-10-12--7b-7-8-7-8--5b-3-5-3-5--3b--------13-------15-12---|
A|--12-10-12-----7-8-7-8-----3-5-3-5-----------------------------|
D|--12-10-12-----7-8-7-8-----3-5-3-5------12-13----13-15---------|

    Dirty girl...
e|---------------------------------------------------------------|
B|---------------------------------------------------------------|
G|---------------------------------------------------------------|
D|--12-10-12--7b-7-8-7-8--5b-3-5-3-5--3b--------13-------15-12---|
A|--12-10-12-----7-8-7-8-----3-5-3-5-----------------------------|
D|--12-10-12-----7-8-7-8-----3-5-3-5------12-13----13-15---------|

    Dirty world...
e|---------------------------------------------------------------|
B|---------------------------------------------------------------|
G|---------------------------------------------------------------|
D|--12-10-12--12-10-12-19-20-19-20--20-19-20-19--17-15-17--------|
A|--12-10-12--12-10-12-19-20-19-20--20-19-20-19--17-15-17--------|
D|--12-10-12--12-10-12-19-20-19-20--20-19-20-19--17-15-17--------|

e|---------------------------------------------------------------|
B|---------------------------------------------------------------|
G|---------------------------------------------------------------|
D|--17-15-17-15-13~----------------------------------------------|
A|--17-15-17-15-13~----------------------------------------------|
D|--17-15-17-15-13~----------------------------------------------|
 
And she's a dirty girl... 
e|---------------------------------------------------------------|
B|---------------------------------------------------------------|
G|---------------------------------------------------------------|
D|--12-10-12--12-10-12-19-20-19-20--20-19-20-19--17-15-17--------|
A|--12-10-12--12-10-12-19-20-19-20--20-19-20-19--17-15-17--------|
D|--12-10-12--12-10-12-19-20-19-20--20-19-20-19--17-15-17--------|
                  
                  Nothing's for free...
e|---------------------------------------------------------------|
B|---------------------------------------------------------------|
G|---------------------------------------------------------------|
D|--17-15-17-15-13~----------------------------------------------|
A|--17-15-17-15-13~----------------------------------------------|
D|--17-15-17-15-13~----------------------------------------------|

 ...dirty world...
e|---------------------------------------------------------------|
B|---------------------------------------------------------------|
G|---------------------------------------------------------------|
D|--12-10-12-------------------12-12-10-17-----------12-10-12----|
A|--12-10-12-------------------12-12-10-17-----------12-10-12----|
E|--12-10-12-------------------12-12-10-17-----------12-10-12----|

And she's a dirty girl...
e|---------------------------------------------------------------|
B|---------------------------------------------------------------|
G|---------------------------------------------------------------|
D|--12-10-12-------------------12-12-10-17-----------12-10-12----|
A|--12-10-12-------------------12-12-10-17-----------12-10-12----|
E|--12-10-12-------------------12-12-10-17-----------12-10-12----|

   You say you want it all...
e|---------------------------------------------------------------|
B|---------------------------------------------------------------|
G|---------------------------------------------------------------|
D|---------------------------------------------------------------|
A|---------------------------------------------------------------|
D|--12-10-12-12-12-12-12-19-20-19-20-20-20-20-20-19-17-15-17-17--|
    .  .  .   .  .  .  .  .  .  .  .  .  .  .  .  .  .  .  .  .

e|---------------------------------------------------------------|
B|---------------------------------------------------------------|
G|---------------------------------------------------------------|
D|---------------------------------------------------------------|
A|---------------------------------------------------------------|
D|--17-17-17-15-13-13-13-13-13-13-13-13--------------------------|
    .  .  .  .  .  .  .  .  .  .  .  .

    I want your body...  
e|---------------------------------------------------------------|
B|---------------------------------------------------------------|
G|---------------------------------------------------------------|
D|-12-------10-12-12-10-12-8-7-7-8-10-8-10-8-7-5-3-3-5-8-10-12-13|
A|-12-10-10-10-12----------8-7-7-8-10----------5-3-3-5-----------|
D|-12-10-10-10-12----------8-7-7-8-10----------5-3-3-5-----------|
       .  .                   . .                . .

  'Cause she's a dirty girl..
e|---------------------------------------------------------------|
B|---------------------------------------------------------------|
G|---------------------------------------------------------------|
D|--12-10-12--7b-7-8-7-8--5b-3-5-3-5--3b--------13-------15-12---|
A|--12-10-12-----7-8-7-8-----3-5-3-5-----------------------------|
D|--12-10-12-----7-8-7-8-----3-5-3-5------12-13----13-15---------|

    ...dirty world...
e|---------------------------------------------------------------|
B|---------------------------------------------------------------|
G|---------------------------------------------------------------|
D|--12-10-12--7b-7-8-7-8--5b-3-5-3-5--3b--------13-------15-12---|
A|--12-10-12-----7-8-7-8-----3-5-3-5-----------------------------|
D|--12-10-12-----7-8-7-8-----3-5-3-5------12-13----13-15---------|

    ...dirty world...
e|---------------------------------------------------------------|
B|---------------------------------------------------------------|
G|---------------------------------------------------------------|
D|--12-10-12--7b-7-8-7-8--5b-3-5-3-5--3b--------13-------15-12---|
A|--12-10-12-----7-8-7-8-----3-5-3-5-----------------------------|
D|--12-10-12-----7-8-7-8-----3-5-3-5------12-13----13-15---------|

     ...dirty girl...
e|---------------------------------------------------------------|
B|---------------------------------------------------------------|
G|---------------------------------------------------------------|
D|--12-10-12--7b-7-8-7-8--5b-3-5-3-5--3b--------13-------15-12---|
A|--12-10-12-----7-8-7-8-----3-5-3-5-----------------------------|
D|--12-10-12-----7-8-7-8-----3-5-3-5------12-13----13-15---------|

    Dirty world...
e|---------------------------------------------------------------|
B|---------------------------------------------------------------|
G|---------------------------------------------------------------|
D|--12-10-12--12-10-12-19-20-19-20--20-19-20-19--17-15-17--------|
A|--12-10-12--12-10-12-19-20-19-20--20-19-20-19--17-15-17--------|
D|--12-10-12--12-10-12-19-20-19-20--20-19-20-19--17-15-17--------|

e|---------------------------------------------------------------|
B|---------------------------------------------------------------|
G|---------------------------------------------------------------|
D|--17-15-17-15-13~----------------------------------------------|
A|--17-15-17-15-13~----------------------------------------------|
D|--17-15-17-15-13~----------------------------------------------|

    Dirty girl...
e|---------------------------------------------------------------|
B|---------------------------------------------------------------|
G|---------------------------------------------------------------|
D|--12-10-12--12-10-12-19-20-19-20--20-19-20-19--17-15-17--------|
A|--12-10-12--12-10-12-19-20-19-20--20-19-20-19--17-15-17--------|
D|--12-10-12--12-10-12-19-20-19-20--20-19-20-19--17-15-17--------|

e|---------------------------------------------------------------|
B|---------------------------------------------------------------|
G|---------------------------------------------------------------|
D|--17-15-17-15-13~----------------------------------------------|
A|--17-15-17-15-13~----------------------------------------------|
D|--17-15-17-15-13~----------------------------------------------|

 ...dirty world...
e|---------------------------------------------------------------|
B|---------------------------------------------------------------|
G|---------------------------------------------------------------|
D|--12-10-12-------------------12-12-10-17-----------12-10-12----|
A|--12-10-12-------------------12-12-10-17-----------12-10-12----|
E|--12-10-12-------------------12-12-10-17-----------12-10-12----|

And she's a dirty girl...
e|---------------------------------------------------------------|
B|---------------------------------------------------------------|
G|---------------------------------------------------------------|
D|--12-10-12-------------------12-12-10-17-----------12-10-12----|
A|--12-10-12-------------------12-12-10-17-----------12-10-12----|
E|--12-10-12-------------------12-12-10-17-----------12-10-12----|

Any corrections or comments please leave below, and enjoy :)





Comments


Popular Dope tabs & chords
Another Day Goes By Bass Tabs
Die Mf Die Bass Tabs
Intervention Bass Tabs
Nothing For Me Here 2 Bass Tabs
Shit Life Chords
Sing Chords
I Am 2 Tabs
Kimberly's Ghost 2 Tabs
Spin Me Round 1 Tabs
Everything Sucks Ukulele


Song lyrics



↑ Back to top | Tablatures and chords are parodies/interpretations of the original songs. You may use it for private study, scholarship, research or language learning purposes only
© 2014 AZChords.com Contact us | Privacy policy | DMCA | Add/correct tabs | Request tabs | Top 50 tabs