>
 >
Die Mf Die 2

Die Mf Die 2 Guitar Tabs

Dope - Die Mf Die 2 chords, tabs, tablatures, lyrics

Guitar lessons | Add/correct | Request | Top 50 tabs Artists:  A B C D E F G H I J K L M N O P Q R S T U V W X Y Z 0-9

Die Mf Die 2 Guitar Tabs – Dope

CD, Sheet music, Poster

Do you like Die Mf Die 2? Share with your friends now
Bass TabsTabsTabs v2Tabs v3Tabs v4
Notation
.=palm mute
~=Vibrato
/= slide (In the one part, you need to time the slide right)
x=muted string

Tuning- I use Drop D, Could be One whole step down.


Play this tab from start to end, and it will perfectly match the song.










e|---------------------------------------------------------------------------|
B|---------------------------------------------------------------------------|
G|---------------------------------------------------------------------------|
D|---------------------------------------------------------------------------|
A|-5-------5------------------5-------5--------------------------------------|
E|-3-0-0-0-3-0-0-0-0----------3-0-0-0-3-0-0-0-0------------------------------|
   . . . . . . . . .          . . . . . . . . . 

e|---------------------------------------------------------------------------|
B|---------------------------------------------------------------------------|
G|---------------------------------------------------------------------------|
D|---------------------------------------------------------------------------|
A|-5-------5-------5-8-5-8--5-------5-------5-8-5-8--5-------5-------5-8-5-8-|
E|-3-0-0-0-3-0-0-0-3-6-3-6--3-0-0-0-3-0-0-0-3-6-3-6--3-0-0-0-3-0-0-0-3-6-3-6-|
   . . . . . . . . . . . .  . . . . . . . . . . . .  . . . . . . . . . . . .

e|---------------------------------------------------------------------------|
B|---------------------------------------------------------------------------|
G|---------------------------------------------------------------------------|
D|---------------------------------------------------------------------------|
A|-5-------5-------8--5-------5-------5-8-5-8--5-------5-------7--5-------5--|
E|-3-0-0-0-3-0-0-0-6--3-0-0-0-3-0-0-0-3-6-3-6--3-0-0-0-3-0-0-0-5--3-0-0-0-3-0|
   . . . . . . . .    . . . . . . . . . . . .  . . . . . . . .    . . . . . .

e|---------------------------------------------------------------------------|
B|---------------------------------------------------------------------------|
G|---------------------------------------------------------------------------|
D|---------------------------------------------------------------------------|
A|-----5-8-5-8-5-------5-------8-----8~---5-5---8~---8~---5-5---8~---8~---5-5|
E|-0-0-3-6-3-6-3-0-0-0-3-0-0-0-6-----6~-0-3-3-0-6~-0-6~-0-3-3-0-6~-0-6~-0-3-3|
   . . . . . . . . . . . . . . 

e|---------------------------------------------------------------------------|
B|---------------------------------------------------------------------------|
G|---------------------------------------------------------------------------|
D|---------------------------------------------------------------------------|
A|--8~---8~---5-5---8~---5-5---8~--8~---5-5---8~---8~---5-5---8~---8~---5-5--|
E|0-6~-0-6~-0-3-300-6~-0-3-3-0-6~0-6~-0-3-3-0-6~-0-6~-0-3-3-0-6~-0-6~-0-3-300|


e|---------------------------------------------------------------------------|
B|---------------------------------------------------------------------------|
G|---------------------------------------------------------------------------|
D|--------------------------------------------------------------------9-7----|
A|5-------5-------8--5-------5-------7--5-------5-------8-5-------5---7-5----|
E|3-0-0-0-3-0-0-0-6--3-0-0-0-3-0-0-0-5--3-0-0-0-3-0-0-0-6-3-0-0-0-3-0--------|
  . . . . . . . .    . . . . . . . .    . . . . . . . .   . . . .   .


e|---------------------------------------------------------------------------|
B|---------------------------------------------------------------------------|
G|---------------------------------------------------------------------------|
D|---------------------------------------------------------------------------|
A|-5-------5------8--5-------5-------7--5-------5-------8-5-------5-------8--|
E|-3-0-0-0-30-0-0-6--3-0-0-0-3-0-0-0-5--3-0-0-0-3-0-0-0-6-3-0-0-0-3-0-0-0-6--|
   . . . . .. . .    . . . . . . . .    . . . . . . . .   . . . . . . . . 

e|---------------------------------------------------------------------------|
B|---------------------------------------------------------------------------|
G|-9/--11/12---9/--11--------------------------------------------------------|
D|-x/--x-/-x---x/---x--------------------------------------------------------|
A|-7/--9-/10---7/---9------5-------5-------8--5-------5-------7--5-------5---|
E|-------------------------3-0-0-0-3-0-0-0-6--3-0-0-0-3-0-0-0-5--3-0-0-0-3-0-|
                             . . .   . . .      . . .   . . .      . . .   .

e|---------------------------------------------------------------------------|
B|---------------------------------------------------------------------------|
G|---------------------------------------------------------------------------|
D|---------------------------------------------------------------------------|
A|----8--5------5-------8~~----5-------5-------8--5-------5-------7----------|
E|0-0-6--3-00-0-3-0-0-0-6~~----3-0-0-0-3-0-0-0-6--3-0-0-0-3-0-0-0-5----------|
  . .    . .. . . . . .          . . .   . . .      . . .   . . .

e|---------------------------------------------------------------------------|
B|---------------------------------------------------------------------------|
G|---------------------------------------------------------------------------|
D|---------------------------------------------------------------------------|
A|-5-------5-------8--5-------5----------------5-------5-------8--5-------5--|
E|-3-0-0-0-3-0-0-0-6--3-0-0-0-3-0-0-0-0-0------3-0-0-0-3-0-0-0-6--3-0-0-0-3-0|
     . . .   . . .    . . . . . . . . . .      . . . . . . . .    . . . . . .

e|---------------------------------------------------------------------------|
B|---------------------------------------------------------------------------|
G|---------------------------------------------------------------------------|
D|----------------------------------------9-7--------------------------------|
A|-----7--5-------5-------8---5-------5---7-5---5-------5-------8--5-------5-|
E|-0-0-5--3-0-0-0-3-0-0-0-6---3-0-0-0-3-0-------3-0-0-0-3-0-0-0-6--3-0-0-0-3-|
   . .    . . . . . . . .     . . . . . .       . . . . . . . .    . . . . .

e|---------------------------------------------------------------------------|
B|---------------------------------------------------------------------------|
G|---------------------------------------------------------------------------|
D|---------------------------------------------------------------------------|
A|-------7-5-------5-------8---5-------5-------8-----------------------------|
E|-0-0-0-5-3-0-0-0-3-0-0-0-6---3-0-0-0-3-0-0-0-6-----------------------------|
   . . .   . . . . . . . .     . . . . . . . .



e|---------------------------------------------------------------------------|
B|---------------------------------------------------------------------------|
G|-9/--11/12---9/--11--------------------------------------------------------|
D|-x/--x-/-x---x/---x--------------------------------------------------------|
A|-7/--9-/10---7/---9------5-------5-------8--5-------5-------7--5-------5---|
E|-------------------------3-0-0-0-3-0-0-0-6--3-0-0-0-3-0-0-0-5--3-0-0-0-3-0-|
                             . . .   . . .      . . .   . . .      . . .   .

e|---------------------------------------------------------------------------|
B|---------------------------------------------------------------------------|
G|---------------------------------------------------------------------------|
D|---------------------------------------------------------------------------|
A|----8--5------5-------8~~----5-------5-------8--5-------5-------7----------|
E|0-0-6--3-00-0-3-0-0-0-6~~----3-0-0-0-3-0-0-0-6--3-0-0-0-3-0-0-0-5----------|
  . .    . .. . . . . .          . . .   . . .      . . .   . . .


e|---------------------------------------------------------------------------|
B|---------------------------------------------------------------------------|
G|---------------------------------------------------------------------------|
D|---------------------------------------------------------------------------|
A|-5-------5-------8--5-------5-------------5-------5------------------------|
E|-3-0-0-0-3-0-0-0-6--3-0-0-0-3-0-0-0-0-0---3-0-0-0-3-0-0-0-0-0--------------|
     . . .   . . .    . . . . . . . . . .   . . . . . . . . . .

e|---------------------------------------------------------------------------|
B|---------------------------------------------------------------------------|
G|---------------------------------------------------------------------------|
D|---------------------------------------------------------------------------|
A|-8~---5-5---8~---8~---5-5---8~---8~---5-5----------------------------------|
E|-6~-0-3-3-0-6~-0-6~-0-3-3-0-6~-0-6~-0-3-3----------------------------------|


e|---------------------------------------------------------------------------|
B|---------------------------------------------------------------------------|
G|---------------------------------------------------------------------------|
D|---------------------------------------------------------------------------|
A|--8~---8~---5-5---8~---5-5---8~--8~---5-5---8~---8~---5-5---8~---8~---5-5--|
E|0-6~-0-6~-0-3-300-6~-0-3-3-0-6~0-6~-0-3-3-0-6~-0-6~-0-3-3-0-6~-0-6~-0-3-300|



e|---------------------------------------------------------------------------|
B|---------------------------------------------------------------------------|
G|---------------------------------------------------------------------------|
D|--------------------------------------------------------------------9-7----|
A|5-------5-------8--5-------5-------7--5-------5-------8-5-------5---7-5----|
E|3-0-0-0-3-0-0-0-6--3-0-0-0-3-0-0-0-5--3-0-0-0-3-0-0-0-6-3-0-0-0-3-0--------|
  . . . . . . . .    . . . . . . . .    . . . . . . . .   . . . .   .


e|---------------------------------------------------------------------------|
B|---------------------------------------------------------------------------|
G|-9/--11/12---9/--11--------------------------------------------------------|
D|-x/--x-/-x---x/---x--------------------------------------------------------|
A|-7/--9-/10---7/---9--22--5-------5-------8--5-------5-------7--5-------5---|
E|---------------------00--3-0-0-0-3-0-0-0-6--3-0-0-0-3-0-0-0-5--3-0-0-0-3-0-|
                             . . .   . . .      . . .   . . .      . . .   .

e|---------------------------------------------------------------------------|
B|---------------------------------------------------------------------------|
G|---------------------------------------------------------------------------|
D|---------------------------------------------------------------------------|
A|----8--5------5-------8~~----5-------5-------8--5-------5-------7----------|
E|0-0-6--3-00-0-3-0-0-0-6~~----3-0-0-0-3-0-0-0-6--3-0-0-0-3-0-0-0-5----------|
  . .    . .. . . . . .          . . .   . . .      . . .   . . .


e|---------------------------------------------------------------------------|
B|---------------------------------------------------------------------------|
G|---------------------------------------------------------------------------|
D|---------------------------------------------------------------------------|
A|-5-------5-------8--5-------5---------8~--5-------5-------8--5-------5-----|
E|-3-0-0-0-3-0-0-0-6--3-0-0-0-3-0-0-0-0-6~--3-0-0-0-3-0-0-0-6--3-0-0-0-3-0-0-|
     . . .   . . .    . . . . . . . . .       . . .   . . .      . . .   . .


e|---------------------------------------------------------------------------|
B|---------------------------------------------------------------------------|
G|---------------------------------------------------------------------------|
D|---------------------------------------------------------------------------|
A|---7-5-------5-------8-5-------5-------8~-5-------5-------8~--5-------5----|
E|-0-5-3-0-0-0-3-0-0-0-6-3-0-0-0-3-0-0-0-6~-3-0-0-0-3-0-0-0-6~--3-0-0-0-3-0-0|
   .     . . .   . . .   . . . . . . . .    . . . . . . . .     . . . . . . .

e|---------------------------------------------------------------------------|
B|---------------------------------------------------------------------------|
G|---------------------------------------------------------------------------|
D|---------------------------------------------------------------------------|
A|----------5-------5--------------------------------------------------------|
E|-0-0--0---3-0-0-0-3-0-0-0-0-0----------------------------------------------|
   . .  .   . . . . . . . . . .





Comments


Popular Dope tabs & chords
With Or Without You W/Structure Bass Tabs
You Spin Me Right Round 4 Bass Tabs
Fuck The Police Chords
Pig Society Chords
Die Mf Die Tabs
I Am 2 Tabs
Pig Society Tabs
Spine For You 2 Tabs
Debonaire Ukulele
Everything Sucks Ukulele


Song lyrics



↑ Back to top | Tablatures and chords are parodies/interpretations of the original songs. You may use it for private study, scholarship, research or language learning purposes only
© 2014 AZChords.com Contact us | Privacy policy | DMCA | Add/correct tabs | Request tabs | Top 50 tabs