» » »

Bring It On Tabs (ver.1)

Artists:  A B C D E F G H I J K L M N O P Q R S T U V W X Y Z # 

Bring It On Tabs (ver.1)

Dope
Rating:
0/5 (0 votes)

Hard to play? Try these video lessons and learn fast.
                Bring It On by Dope
Tuning: Drop Db (C# G# C# F# A# D#)

Intro
D#|----------------|
A#|----------------|
F#|----------------|
C#|----------------|
G#|----6-5-----6-5-|
C#|-00------00-----|
PM  -- - -  -- - -

Chorus
D#|------------------------------------|-------------------|
A#|------------------------------------|-------------------|
F#|-----------5-5-7------------5-5-8-7-|-------------------|
C#|-0--0-3-00-5-5-7--0--0-3-00-5-5-8-7-|-0--0-3-00-6-6-5-3-|
G#|-0--0-3-00-3-3-5--0--0-3-00-3-3-6-5-|-0--0-3-00-6-6-5-3-|
C#|-0--0-3-00--------0--0-3-00---------|-0--0-3-00-6-6-5-3-|

Verse
D#|-----------------------------------|
A#|-----------------------------------|
F#|-----------------------------------|
C#|-0-00003-33333333-6-66661-11111111-|
G#|-----------------------------------|
C#|-----------------------------------|
PM  - ----- -------- - ----- --------

Pre-Chorus (Virus does something more f**ked up than that live)
D#|----------------------------------------------------|
A#|----------------------------------------------------|
F#|----------------------------------------------------|
C#|---------------------------66-5-3-------------------|
G#|-5--55-5--6--66-6--5--55-5---------5--55-5--6--66-6-|
C#|----------------------------------------------------|

The whole interlude is just mess around... i'm not 100% sure of this whole part

Interlude part 1
D#|----------------------------------------|
A#|----------------------------------------|
F#|----------------------------------------|
C#|-0--00001-0-1-0-1-0-1--0--00000--66-5-3-|
G#|-0--00001-0-1-0-1-0-1--0--00000---------|
C#|-0--00001-0-1-0-1-0-1--0--00000---------|

Interlude part 2
D#|--------------------------------------------|
A#|--------------------------------------------|
F#|--------------------------------------------|
C#|-0--00001-0-1-0-1-0-1--0--00000--0--0-1-0-1-|
G#|-0--00001-0-1-0-1-0-1--0--00000--0--0-1-0-1-|
C#|-0--00001-0-1-0-1-0-1--0--00000--0--0-1-0-1-|

Interlude part 3
D#|----------------------------------------|
A#|----------------------------------------|
F#|---------------------------8-7------8-7-|
C#|-0--00001-0-1-0-1-0-1--0-0-8-7--0-0-8-7-|
G#|-0--00001-0-1-0-1-0-1--0-0-6-5--0-0-6-5-|
C#|-0--00001-0-1-0-1-0-1--0-0------0-0-----|

Outro (not sure about this part)
D#|------------------|
A#|------------------|
F#|-----8-7------8-7-|
C#|-0-0-8-7--0-0-8-7-|
G#|-0-0-6-5--0-0-6-5-|
C#|-0-0------0-0-----|

Song Structure
Drums
Intro
Chorus
Verse No Guitar
Verse
Pre-Chorus
Intro
Chorus
Verse No Guitar
Verse
Pre-Chorus
Intro
Chorus
Intro
Interlude part 1
Interlude part 2
Interlude part 1
Interlude part 3
Chorus
Outro
            
Hard to play? Try these video lessons and learn fast. | Correct




comments powered by Disqus
↑ Back to top | Tablatures and chords are parodies/interpretations of the original songs. You may use it for private study, scholarship, research or language learning purposes only