>
 >
Always

Always Guitar Tabs

Dope - Always chords, tabs, tablatures, lyrics

Guitar lessons | Add/correct | Request | Top 50 tabs Artists:  A B C D E F G H I J K L M N O P Q R S T U V W X Y Z 0-9

Always Guitar Tabs – Dope

CD, Sheet music, Poster

Do you like Always? Share with your friends now
Bass TabsTabs
Tuning: Drop C#

==================================================================
==================================================================
==================================================================

Here's my tab for "Always" by Dope. I know it's an old song but it's my favourite and 
there weren't any other tabs available. Please check out my other tabs which are of 
similar bands. Sorry it's a bit long winded :/


==================================================================
==================================================================
==================================================================

Intro riff (Guitar 1)

D#|-------------------------------|------------------------------|
A#|-------------------------------|------------------------------|
F#|-------------------------------|------------------------------|
C#|-------------------------------|------------------------------|
G#|--0--0-0-3p0--0--0-0-0--1h0p1--|--0--0-0-3p0--0--0-0-0-0-0h1--|
C#|--0--0-0-3p0--0--0-0-0--1h0p1--|--0--0-0-3p0--0--0-0-0-0-0h1--|
        . .         . . .                           . . . .

==================================================================

Intro Lead (Guitar 2)
   >   Repeat x 2   <
D#|------------------|----------------------------------------|
A#|------------------|----------------------------------------|
F#|--7--7-7-7-7-7-7--|--/8--8-8-8-8-8-8-8--8-8-8/10-10-10-10--|
C#|------------------|----------------------------------------|
G#|------------------|----------------------------------------|
C#|------------------|----------------------------------------|

   >   Repeat x 2   <
D#|------------------|-------------------------------------------------|
A#|------------------|-------------------------------------------------|
F#|------------------|-------------------------------------------------|
C#|--7--7-7-7-7-7-7--|--/19--19-19-19-19-19-19--19--19-19-19-19-19-19--|
G#|------------------|-------------------------------------------------|
C#|------------------|-------------------------------------------------|

==================================================================

Verse riff (Guitar 1 + 2)
   >     Repeat x 3    <
D#|--------------------|--------------------------------|
A#|--------------------|--------------------------------|
F#|--------------------|--------------------------------|
C#|--------------------|--------------------------------|
G#|--0--0--0h1h3p1--0--|--0--0--0--1h3p1--0--0-0-0-0-0--|
C#|--0--0--0h1h3p1--0--|--0--0--0--1h3p1--0--0-0-0-0-0--|
                                             . . . . .

D#|-------------------------|-------------------------------|
A#|-------------------------|-------------------------------|
F#|-------------------------|-------------------------------|
C#|-------------------------|-------------------------------|
G#|--0--0--0h1h3p1--0--0-0--|--0--0--0h1h3p1--0--0-0-0-0-0--|
C#|--0--0--0h1h3p1--0--0-0--|--0--0--0h1h3p1--0--0-0-0-0-0--|
                       . .                       . . . . .

D#|---------------------------|
A#|---------------------------|
F#|---------------------------|
C#|---------------------------|
G#|--0--0--0h1h3p1--0--0-0-0--|
C#|--0--0--0h1h3p1--0--0-0-0--|
                       . . .

==================================================================

Pre-chorus riff (Guitar 1)

D#|------------------------------------------------------------------------|
A#|------------------------------------------------------------------------|
F#|--------10-------10----10-------10----10----10-------9-------9----9-----|
C#|--12-12----12-12----12----12-12----12----12----11-11---11-11---11---11--|
G#|------------------------------------------------------------------------|
C#|------------------------------------------------------------------------|

D#|----------------------------------------|
A#|----------------------------------------|
F#|------6-----6----6----6-7-6-------------|
C#|--7-7---7-7----7----7-------------------|
G#|----------------------------------------|
C#|----------------------------(10)pbr(5)--|


==================================================================

Chorus (Guitar 1)
   >                 Repeat x 3                   <
D#|------------------------------------------------|
A#|------------------------------------------------|
F#|--9--9-9-9-9--7--7-7-7-7-7--10-12-9--9-9-9-9-9--|
C#|--9--9-9-9-9--7--7-7-7-7-7--10-12-9--9-9-9-9-9--|
G#|--7--7-7-7-7--5--5-5-5-5-5--8--10-7--7-7-7-7-7--|
C#|------------------------------------------------|

----------------------------------------------------|
----------------------------10--10-10-10--8--8-8-8--|
--9--9-9-9-9--7--7-7-7-7-7--9---9--9--9---7--8-8-8--|
--9--9-9-9-9--7--7-7-7-7-7--7---7--7--7---5--8-8-8--|
--7--7-7-7-7--5--5-5-5-5-5--------------------------|
----------------------------------------------------|

==================================================================

Chorus (Guitar 2)

D#|------------------------------------------------|
A#|------------------------------------------------|
F#|------------------------------------------------|
C#|--0-------------------------3-----2-------------|
G#|--0-------------------------3-----2-------------|
C#|--0-------------------------3-----2-------------|

==================================================================

Chorus to verse fill

D#|-------------------------------|----------------------------|
A#|-------------------------------|----------------------------|
F#|-------------------------------|----------------------------|
C#|-------------------------------|----------------------------|
G#|--0--0-0-3p0--0--0-0-0--1h0p1--|--0--0-0-3p0--0--0-0-0-0-0--|
C#|--0--0-0-3p0--0--0-0-0--1h0p1--|--0--0-0-3p0--0--0-0-0-0-0--|
        . .         . . .                           . . . .

==================================================================
Bridge (Guitar 1)
                             >    Repeat x 2  <
D#|-------------------------|------------------|
A#|--11----------11---------|--10h11p10--------|
F#|--x-----------x----------|-----------10--7--|
C#|--8----7/8----8---7/8----|------------------|
G#|-------7/8--------7/8----|------------------|
C#|-------7/8--------7/8----|------------------|

==================================================================

==================================================================

Bridge (Guitar 2)

D#|-----|---------------------------|
A#|-----|---------------------------|
F#|--3--|---------------------------|
C#|--3--|--0----------0----------0--|
G#|--1--|--0--0-0-0-0-0--0-0-0-0-0--|
C#|-----|--0--0-0-0-0-0--0-0-0-0-0--|
              . . . .    . . . .

==================================================================

Bridge Ending (Guitar 2)

D#|-----|-----|
A#|-----|-----|
F#|--3--|--2--|
C#|--3--|--2--|
G#|--1--|--0--|
C#|-----|--0--|

==================================================================

Bridge Ending (Guitar 1)

D#|-------------|
A#|-------------|
F#|--5---6---7--|
C#|--5---6---7--|
G#|--3---4---5--|
C#|-------------|

END ON:

Guitar 1: Open C#5
Guitar 2: Fret 19 on F# (3rd string)

==================================================================
==================================================================
==================================================================

LEGEND:

.               Palm-mute
x               Blocked string
h               Hammer-on
p               Pull-off
/               Slide up
(y)pbr(z)       Pre-bend from fret 'z' up to note 'y' and release
>>>             Continuation of riff





Comments


Popular Dope tabs & chords
Pig Society 1 Bass Tabs
Slippin Away Bass Tabs
You Spin Me Right Round 3 Bass Tabs
Easier Chords
Addiction 1 Tabs
Nothing (Why?) Tabs
Now Is The Time Tabs
Sick Tabs
Sick 1 Tabs
You Spin Me Right Round 1 Tabs


Song lyrics



↑ Back to top | Tablatures and chords are parodies/interpretations of the original songs. You may use it for private study, scholarship, research or language learning purposes only
© 2014 AZChords.com Contact us | Privacy policy | DMCA | Add/correct tabs | Request tabs | Top 50 tabs