» » »

Always Bass tabs (ver.1)

Artists:  A B C D E F G H I J K L M N O P Q R S T U V W X Y Z # 

Always Bass tabs (ver.1)

Dope
Rating:
0/5 (0 votes)

Hard to play? Try these video lessons and learn fast.
                Dope 
Always 
DGCF

Intro:
|-------------------|------------------|
|*------------------|-----------------*|
|*------------2/3-2-|---------------2-*|
|-2-002320-000------|-2-002320-00000---|X4

Verse:
|----------|---------||---------------|---------------|
|*---------|--------*||*--------------|--------------*|
|*---------|--------*||*--------------|--------------*|
|-00-232-r-|-00-232^-||-0023200000000-|-00232-00-0000-|

Pre-Chorus:
|----------------|-------------|
|-/7-6----/9-8---|-/5-4--------|
|------7-------8-|------5-0~-r-|
|----------------|-------------|

Chorus:
|-----------|-----------|   |-----------|-/9-7---|
|*----------|----------*|   |-----------|------7-|
|*----------|----------*|   |-----------|--------|
|-0-xx0-320-|-0-xx0-210-|X3 |-0-xx0-320-|--------|

Pre-Verse:
|-------------------|----------------|
|-------------------|----------------|
|-------------2/3-2-|----------------|
|-2-002320-000------|-2-002320-000-r-|

Verse:
Pre-Chorus 
Chorus:

Bridge:
|----------|----------|   |----------|----------|
|*---------|---------*|   |----------|----------|
|*---------|---------*|   |----------|----------|
|-0-xx0-x0-|-0-xx0-00-|X5 |-00000000-|-3-2-0~~~-|

Final Chorus:
|-----------|-----------|-----------|-/9-7---|
|-----------|-----------|-----------|------7-|
|-----------|-----------|-----------|--------|
|-0-xx0-320-|-0-xx0-210-|-0-xx0-320-|--------|

Chorus:

Outro:
|-------------------|------------------|
|-------------------|------------------|
|-------------2/3-2-|---------------2--|
|-2-002320-000------|-2-002320-00000---|

|-------------------|----------------|
|-------------------|----------------|
|-------------2/3-2-|----------------|
|-2-002320-000------|-2-002320-0000~-|
            
Hard to play? Try these video lessons and learn fast. | Correct




comments powered by Disqus
↑ Back to top | Tablatures and chords are parodies/interpretations of the original songs. You may use it for private study, scholarship, research or language learning purposes only