» » »

Dope, Addiction Tabs (ver.3)

Artists:  A B C D E F G H I J K L M N O P Q R S T U V W X Y Z # 

Addiction Tabs (ver.3)

Dope Tabs
 Rating:
4/5 (6 votes)
Addiction lessons Tabs too difficult? Try these video lessons and learn fast
                Ok first of all ALL THE ADDICTION TABS ARE WRONG! I'm sure this is like 90% right.
Guitarist-Virus (the boss)
Dope always tunes to c# or B

This song is in Drop B (B,f#,b,e,g#,c#)


Intro                                    1st end                       2nd end
---------------------------|----------------------------------|-------------------------------|
---------------------------|----------------------------------|-------------------------------|
---------------------------|----------------------------------|-------------------------------|
---------------------------|----------------------------------|-------------------------------|
---------------------------|----------------------------------|-------------------------------|
-0-12~-0-13~-0-12~-0-13~---|---0-12~-0-13~-0-12~-0-10~--------|--0-12~--0-13*~----0--12~~~~~--|


Pre verse                                                  end 1                  end 2
-----------------|------------------|----------------|-----------------------|-----------------|
-----------------|------------------|----------------|-----------------------|-----------------|
-----------------|------------------|----------------|-----------------------|-----------------|
-0---------------|--0---------------|--0-------------|-----------------------|-----------------|
-0---------------|--0---------------|--0-------------|-----------------------|12p11-10p9-10p9--|
-0-00--00---2/13-|--0-00--00-13/10--|--0-00-00--2/13-|--6/13/6--0--5/10/5--3*|-----------------|

----------------------------|
----------------------------|
----------------------------|
----------------------------|
--8p7-8p7---6p5---6p5--4p3--|
----------------------------|

Verse                               fill 1             fill 2
---------------------------------|---------------|------------------|
---------------------------------|---------------|------------------|
---------------------------------|-------7*---2p0|---------5*---2p0-|
---0--00-00-0-3---0-00--00--0--6-|--0h6----------|----0h6-----------|
---0--00-00-0-3---0-00--00--0--6-|---------------|------------------|
---0--00-00-0-3---0-00--00--0--6-|---------------|------------------|
      .. ..         ..  ..

Pre Chorus               ph.1   ph.2     ph.3        end fill
----------------------|-------|-------|----------|-----------------|
----------------------|-------|-------|----------|-----------------|
----------------------|-------|----2*-|-----7*---|-----------------|
---5h6-----5h6--------|---3*--|-------|----------|--0h6-7-8-7-6----|
-------5---------5-5--|-------|-------|----------|--0h6-7-8-7-6----|
----------------------|-------|-------|----------|--0h6-7-8-7-6----|


Fill
--------------------------------------------|-------------------------------------------------|
--------------------------------------------|-------------------------------------------------|
--------------------------------------------|-------------------------------------------------|
--------------------------------------------|-------------------------------------------------|
12p11-10p9-10p9----8p7-8p7---6p5---6p5--4p3-|-------------------------------------------------|
--------------------------------------------|-----7p6--5p4---5p4---3p2--3p2----1p0--1p0--1p0--|


solo-I have no idea! I think it might be the phrigian mode in the key of B.
            
Submit corrections

comments powered by Disqus
↑ Back to top | Dope Tabs for Addiction. Lyrics for acoustic guitar and electric guitar. Tablatures and chords are parodies/interpretations of the original songs. You may use it for private study, scholarship, research or language learning purposes only