» » »

Dope, Addiction Tabs (ver.1)

Artists:  A B C D E F G H I J K L M N O P Q R S T U V W X Y Z # 

Addiction Tabs (ver.1)

Dope Tabs
 Rating:
4/5 (4 votes)
Addiction lessons Tabs too difficult? Try these video lessons and learn fast
1
                100% correct!!!!!!!!!!!!!!!!!!!!!!!!!!!!!!!!

Tunning-drop B-(B,f#,b,e,g#,c#)
there are 2 guitars im tabing the lead

Intro
-------------|----------------------|--------------------------------------|
-------------|----------------------|--------------------------------------|
-------------|----------------------|--------------------------------------|
--0-12--0-13-|-0-12--0-13-0-12-0-10-|-0-12-0-13-0-12-0-13~~~~-0-12-0-13*-0-|
-------------|----------------------|--------------------------------------|
-------------|----------------------|--------------------------------------|
   2X

Chorus                                      fill 1
----------------------------------------|-----------------------------------|
----------------------------------------|-----------------------------------|
----------------------------------------|-----------------------------------|
----------------------------------------|-----------------------------------|
-0-x-x-x---x---3/6--0-x-x-x---x----6\3--|--3/6-0----------------------------|
-0-x-x-x-1-x-1------0-x-x-x-1-x-1-------|---------0--5/8-3/6----------------|

fill 2
----------------------------------------------------------------------------|
----------------------------------------------------------------------------|
----------------------------------------------------------------------------|
--7-6-5-4---6-5-4-3---5-4-3-2---4-3-2-1-------------------------------------|
----------------------------------------------------------------------------|
----------------------------------------------------------------------------|

Verse                                fill
-----------------------------------|--------------|
-----------------------------------|--------------|
-----------------------------------|----9*--------|
-0------------3--0------------6----|-/7----7p5----|
-0------------3--0------------6----|--------------|
-0--00--00---03--0-00---00---06----|--------------|

Pre-Chorus             P.H. fills         Before chorus fill
-------------------|------|-----|-----|-------------------------------------|
-------------------|------|-----|-----|-------------------------------------|
-------------------|------|-----|--5*-|-------------------------------------|
--5-6-0-3--6-5-0-3-|------|--5*-|-----|-------------------------------------|
-------------------|--3*--|-----|-----|--0h6-0h7-0h8-0h9-0-10\--------------|
-------------------|------|-----|-----|--0h6-0h7-0h8-0h9-0-10\--------------|
                     1st    2nd   3rd
                         endings


Pre-solo fills
----------------------------------------------------------------------------|
----------------------------------------------------------------------------|
----------------------------------------------------------------------------|
-7-6-5-4---6-5-4-3---5-4-3-2---4-3-2-1--------------------------------------|
----------------------------------------------------------------------------|
----------------------------------------7-6-5-4--6-5-4-3--5-4-3-2--4-3-2-1--|

i kno the solo but when i previewed it, it was really messed up so here's the main stuff 
might post another tab for the solo!!!

IDK Outro=solo 2
            
Submit corrections

comments powered by Disqus
↑ Back to top | Dope Tabs for Addiction. Lyrics for acoustic guitar and electric guitar. 1 Tablatures and chords are parodies/interpretations of the original songs. You may use it for private study, scholarship, research or language learning purposes only