» » »

Roadhouse Blues Tabs (ver.5)

Artists:  A B C D E F G H I J K L M N O P Q R S T U V W X Y Z # 

Roadhouse Blues Tabs (ver.5)

Doors
Rating:
0/5 (0 votes)

Tabs too difficult? Try these video lessons and learn fast.
                -------------------------------------------------------------------------------
			     Roadhouse Blues (live version) - The Doors
-------------------------------------------------------------------------------

Guitarist:	Robbie Krieger
Tuning:  	Standard
Key:		E-Minor (Blues Scale)
Tone:		ES-Type Guitar, Neck Pickup, High Bass, High Treble, Mid Midrange,
Slight fuzz, dirty distortion, light reverb.  I use a little fender tube amp  (40W) and 
natural overdrive on that comes pretty close to what he sounds like.  If your using a 
type guitar, the neck/middle pickup with the tone knob rolled back a bit sounds good.


I don’t know which album this is from (I downloaded it), but at the beginning an 
says “from Los Angeles…The Doors,” because there are a few versions floating around out there.  
remember to rate it!


Main Solo

1:53
e|---------------------------------------------------------------------------|
B|-------12-12-12--------12-12------12--------12-12-------12-12------12-12---|
G|---14b16-----------14b16-----14b16--------14b--------14b--------14b--------|
D|---------------------------------------------------------------------------|
A|---------------------------------------------------------------------------|
E|---------------------------------------------------------------------------|

1:57
e|-----------------------------------------------------------------------------|
B|-----12-12-----12-12-----12-12-----12-12-----12-12-----12-12-12---12---------|
G|--14b-------14b-------14b-------14b-------14b-------14b--------14b---14b-----|
D|-----------------------------------------------------------------------------|
A|-----------------------------------------------------------------------------|
E|-----------------------------------------------------------------------------|

2:01
e|----15b~--15-12-------12---------12----------------------------------------|
B|----------------15b17------15b17-------------------------------------------|
G|--------------------------|--------|---------------------------------------|
D|--------------------------|--------|---------------------------------------|
A|------------repeat this about 20 times ------------------------------------|
E|---------------------------------------------------------------------------|

2:08
e|---------------------------15b17r15p12------12h15b17-17-17--17r15--12--12--|
B|----15--15b17r15p12--------------------15----------------------------15----|
G|--------------------14------------------------------|---------|------------|
D|----------------------------------------------------|hold bend|------------|
A|---------------------------------------------------------------------------|
E|---------------------------------------------------------------------------|
2:12
e|-------15-17b19--19--19r17--15----15-------17b19~~-17p15-----15------------|
B|---/17-------------------------17-------------------------17----17b19------|
G|---------------------------------------------------------------------------|
D|---------------------------------------------------------------------------|
A|---------------------------------------------------------------------------|
E|---------------------------------------------------------------------------|

2:16
e|---------------------------------------------------------------------------|
B|-(17b19)--19r17p15----15------17b19---19r17p15---17b19---19r17p15---17b19--|
G|-------------------16------16-----------------16-----------------16--------|
D|---------------------------------------------------------------------------|
A|---------------------------------------------------------------------------|
E|---------------------------------------------------------------------------|

e|---------------------------------------------------------------------------|
B|--19r17p15---15s0----------------------------------------------------------|
G|----------16---------------------------------------------------------------|
D|---------------------------------------------------------------------------|
A|---------------------------------------------------------------------------|
E|---------------------------------------------------------------------------|

2:21
e|----0---0----(0)----(0)----(0)---------------------------------------------|
B|---/5---5-----5------5------5------5------5------5-------------------------|
G|-----------6b-----6b-----6b----4h6----4h6----4h6---4----7b8r7p5----7--5----|
D|-----------------------------------------------------------------7---------|
A|---------------------------------------------------------------------------|
E|---------------------------------------------------------------------------|

2:25
e|---------0-0---------------------------------------------------------------|
B|------5--5-5------5------5------5------------------------------------------|
G|--(4)h6-------4h6----4h6----4h6------repeat for a while--------------------|
D|---------------------------------------------------------------------------|
A|---------------------------------------------------------------------------|
E|---------------------------------------------------------------------------|

2:36  -  this ending is difficult to hear, but it’s there
e|---------------------------------------------------------------------------|
B|--------5---------------------------------------2vvv-----------------------|
G|----4s6---6---4s2--0-----------------------------------5p2~~-----5---------|
D|---------------------2~--2---2~--------------------------------------------|
A|---------------------------------------------------------------------------|
E|---------------------------------------------------------------------------|

Licks During Verse

3:44
e|---------------------------------------------------------------------------|
B|--------------------------0------------------------------------------------|
G|-------0--2--2s4--2--0----0------------------------------------------------|
D|----2-------------------2----2--2--0--0------0-----------------------------|
A|------------------------------------------2-----2--------------------------|
E|---------------------------------------------------------------------------|

3:57
e|---------------------------------------------------------------------------|
B|-------------------------------------------------------3-------------------|
G|---------------------2s4-2--2-0--------------------2s4---4s2p0--2p0--------|
D|--------------------------------2------------------------------------------|
A|---------------------------------------------------------------------------|
E|---------------------------------------------------------------------------|
      Ashen   Lady				Ashen Lady

4:04
e|---------------------------------------------------------------------------|
B|---------------------------------------------------------------------------|
G|---------------------------------------------------------------------------|
D|------------------------2--5-5--2~-----------------------2--5-5--(0)h2-----|
A|---------------------------------------------------------------------------|
E|---------------------------------------------------------------------------|
      Give Up Your Vows			Give Up Your Vows

4:12
e|-------------------------------------------------------0-0-0---------------|
B|-------------------------------------------------------3-3-3-5b6r5-p-3---3-|
G|-----------------h2-2-0-2-0------------------------2s4-----------------4---|
D|----------------------------2----------------------------------------------|
A|---------------------------------------------------------------------------|
E|---------------------------------------------------------------------------|
      Save Our City				Save Our City

e|-------------------------------------------0--0----------------------------|
B|-------------------------------------------0--0----------------------------|
G|-----------------2b3r2-p0--------------------------------------------------|
D|---------------------------2---5-5--2~-------------------------------------|
A|---------------------------------------------------------------------------|
E|---------------------------------------------------------------------------|
	Right Now!

Outro

e|----15b17-----12-----------------------------------------------------------|
B|-----------------15--12----------------------------------------------------|
G|----------------------------15---14b15r14p12-----12s0--------1---1---------|
D|----------------------------------------------14-------------2---0---------|
A|-------------------------------------------------------------2---2---------|
E|-------------------------------------------------------------0---0---------|


| /  slide up
|   slide down
| s  slide to a specific note
| h  hammer-on
| p  pull-off
| ~  micro vibrato
| v  strong vibrato
| +  harmonic
| x  Mute note
| () ghost note
            
Tabs too difficult? Try these video lessons and learn fast.




comments powered by Disqus
↑ Back to top | Tablatures and chords are parodies/interpretations of the original songs. You may use it for private study, scholarship, research or language learning purposes only