» » »

Jesus Is Just Alright Bass tabs (ver.1)

Artists:  A B C D E F G H I J K L M N O P Q R S T U V W X Y Z # 

Jesus Is Just Alright Bass tabs (ver.1)

Doobie Brothers
Rating:
0/5 (0 votes)

Tabs too difficult? Try these video lessons and learn fast.
                
                                                                           
NO BASS 
G-------|-----------------|-------5-|---------|-------5-|-----------------|
D-------|-----------------|---------|---------|---------|-------5-4-------|
A-------|-----------------|-5-6-7---|-5-6-7-3-|-5-6-7---|-5-6-7-----5-7-5-|
E-------|-0-0-0-0-0-0-0-0-|---------|---------|---------|-----------------|
                                                                           
                                                           
VERSE START 
G----------------------------|----------------------------|
D----------------------------|----------------------------|
A----------------------3-4-5-|----------------------------|
E---5-5--5-5-0--5-5-0--------|-5-5--5-5-0--5-5-0--0-0-2-3-|
                                                           
                                                                   
  
G----------------------------|------------------------------------|
D----------------------------|------------------------------------|
A----------------------3-4-5-|------------------------------------|
E---5-5--5-5-0--5-5-0--------|-5-5--5-5-0--5-5-0--0-0-0-0-0-0-0-0-|
                                                                   
                                                           
    
G----------------------------|----------------------------|
D----------------------------|----------------------------|
A----------------------3-4-5-|----------------------------|
E---5-5--5-5-0--5-5-0--------|-5-5--5-5-0--5-5-0--0-0-2-3-|
                                                           
                                                    
    
G----------------------------|---------------------|
D----------------------------|---------------------|
A----------------------3-4-5-|-----------------3-3-|
E---5-5--5-5-0--5-5-0--------|-5-5--5-5-0--5-5-----|
                                                    
                                                                     
           VERSE END                     NO BASS
G---------------------|-----------------|---------|-----------------|
D---------------------|-----------------|---------|-----------------|
A---------------------|-----------------|---------|-----------------|
E---5-5--5-5-0--5-5-0-|-0-0-0-0-0-0-0-0-|---------|-0-0-0-0-0-0-0-0-|
                                                                     
REPEAT VERSE/LEAVE OUT LAST LINE                                                                     
                                                    
                                                               
    SLOW PART     10X                              6X
G---|----------------|-----------------|---------------|------|
D---|*--------------*|-----------------|*-------------*|------|
A---|*----7-3-5-----*|-5-5--0-5-0--5-5-|*----7-3-5----*|----0-|
E---|--5-------------|-----------------|--5------------|------|
                                                               
                                                       
                       7X
G---|--------5------------|-------5-------------------|
D---|*-------------------*|-----------------5-4-------|
A---|*-5-6-7-----5-6-7-3-*|-5-6-7-----5-6-7-----5-7-5-|
E---|---------------------|---------------------------|
                                                       
REPEAT VERSE/LEAVE OUT LAST LINE/END                                                       
                                                               
                                                           
                                                                   
                                                           
                                                                           
            
Tabs too difficult? Try these video lessons and learn fast.




comments powered by Disqus
↑ Back to top | Tablatures and chords are parodies/interpretations of the original songs. You may use it for private study, scholarship, research or language learning purposes only