» » »

Doobie Brothers, China Grove Tabs (ver.2)

Artists:  A B C D E F G H I J K L M N O P Q R S T U V W X Y Z # 

China Grove Tabs (ver.2)

Doobie Brothers Tabs
 Rating:
4/5 (4 votes)
China Grove lessons Tabs too difficult? Try these video lessons and learn fast
1
                (Solo)
#---------------------------------YOU BEST NOTE-------------------------------#
#---------------------------------YOU BEST NOTE-------------------------------#


China Grove Intro and Solo

Doobie Brothers



Intro : w/ delay
e------------------------------|-------------------------------|
b--9--9\-x-x-x-x-9--9\-x-x-x-x-|--7-x-x--2-x-x--2-x-9--9-------|
g--9--9\-x-x-x-x-9--9\-x-x-x-x-|--7-x-x--2-x-x--2-x-9--9-------|
d--9--9\-x-x-x-x-9--9\-x-x-x-x-|--7-x-x--2-x-x--2-x-9--9-------|
a--7--7\-x-x-x-x-7--7\-x-x-x-x-|--5-x-x--4-x-x--0-x-7--7-------|
e------------------------------|-------------------------7-9-0-|

Solo :
e------------------------------|-------------------------------|
b------------------------------|-------------------------------|
g-------9-9----11------9-11b13-|-11b13--11b13r11-9--9vvv-11b14-|
d--9h11-----11----9-11---------|-------------------------------|
a------------------------------|-------------------------------|
e------------------------------|-------------------------------|

e------------------------------|-------------------------------|
b-------------------------12b14|vv-12-12b14--12----------------|
g-11b13r11-9----9vvv-----------|----------------11b13r11p9-----|
d------------11------11--------|---------------------------11--|
a------------------------------|-------------------------------|
e------------------------------|-------------------------------|

e--------------12------12------|---------------------------12--|
b------------------------------|------------------------12-----|
g--9--9--11b13---11b13----11br-|-9----9vvvv-11b13vv-/13--------|
d------------------------------|---11--------------------------|
a------------------------------|-------------------------------|
e------------------------------|-------------------------------|

e----------------------------|-------------12-------12-----|
b-15vvv-15-15-15-15-15-15-15-|-15-15-15-15----12h15----12--|
g----------------------------|-----------------------------|
d----------------------------|-----------------------------|
a----------------------------|-----------------------------|
e----------------------------|-----------------------------|

e--15b17vvv--15-15b16--15-15b16-|-15-15b16-12----12-------------|
b-------------------------------|-------------15----15b17vvv-15-|
g-------------------------------|-------------------------------|
d-------------------------------|-------------------------------|
a-------------------------------|-------------------------------|
e-------------------------------|-------------------------------|

e----------------------12------|-----------------------------12-|
b--15b17vv-15-15b17vvv----15-15|b17vvv-15-12-15-14-12------12---|
g------------------------------|----------------------12h13-----|
d------------------------------|--------------------------------|
a------------------------------|--------------------------------|
e------------------------------|--------------------------------|

e---------------------------|
b-12--15-12-----------------|
g-----------14b16-12b-------|
d----------------------14\\-|
a---------------------------|
e---------------------------|
            
Submit corrections

comments powered by Disqus
↑ Back to top | Doobie Brothers Tabs for China Grove. Lyrics for acoustic guitar and electric guitar. 1 Tablatures and chords are parodies/interpretations of the original songs. You may use it for private study, scholarship, research or language learning purposes only