» » »

Doobie Brothers, Busted Down Around Tabs (ver.2)

Artists:  A B C D E F G H I J K L M N O P Q R S T U V W X Y Z # 

Busted Down Around Tabs (ver.2)

Doobie Brothers Tabs
Rating:
0/5 (0 votes)
Busted Down Around lessons Tabs too difficult? Try these video lessons and learn fast
                Busted Down Around OConnelly Corners
Doobie Brothers/Patrick Simmons/James Earl Luft

h = hammer-on   p = pull-off   () = ringing note

-capo 2nd fret-                                Tempo: moderately fast

   Am               G             Am                G
e:----------------------------------------------------------3---------|
B:------1p0-1p0---0-----------0-------1-----1p0---0-------------------|
G:----2---------2-----0---0h2-----2-------2-----2-------0-------0-----|
D:------2-------2-------0-------0-------2-------2-----0-------0-------|
A:--0-------3-------2---------------0-------3-------2-----------------|
E:--------------------------3-----------------------------3-----------|


   Am               G             Am                G
e:----------------------------------------------------------3---------|
B:------1p0-1p0---0-----------0-------1-----1p0---0-------------------|
G:----2---------2-----0---0h2-----2-------2-----2-------0-------0-----|
D:------2-------2-------0-------0-------2-------2-----0-------0-------|
A:--0-------3-------2---------------0-------3-------2-----------------|
E:--------------------------3-----------------------------3-----------|


    D             C               D             C
e:------2-2p0---0-----------0---------2-2p0---0-----------------------|
B:----3-------3---------1h3---------3-------3---------1---------------|
G:------2-----2-----0-----------0-----2-----2-----0-------0---0-------|
D:--0-----4-----------2-------2---0-----4-----------2-------2---------|
A:----------------3-------3---------------------3---------------------|
E:------------------------------------------------------3-------------|


   Am               G              Am
e:--------------------------------------------------------------------|
B:------1p0-1p0---0-----------0-------1(1)p0-1p0---0------------------|
G:----2---------2-----0---0h2-----2--------------2--------------------|
D:------2-------2-------0-------0-------2--------2--------------------|
A:--0-------3-------2---------------0--------3------------------------|
E:--------------------------3-----------------------------------------|


    G
e:----------------3------------------|
B:----------0-------0-------0--------|
G:------0-------0-------0------------|
D:----0-------0-------0-------0------|
A:--2--------------------------------|
E:--------3-------3-------3----------|


   Bm                              Bm               G     D
e:------------2-------------------------------2-----3-----2-----------|
B:--------2h3-----0-2-----0-------0-------2h3---------0-----3---------|
G:----4---------------0-------2-------4-----------0-------------------|
D:------4-------4-------0-------0-------4-------4-------0-----0-------|
A:--2-------2-------0---------------2-------2-------------------------|
E:--------------------------3-----------------------3-----------------|


   Bm                              Bm               G     D
e:------------2-------------------------------2-----3-----2-----------|
B:--------2h3-----0-2-----0-------0-------2h3---------0-----3---------|
G:----4---------------0-------2-------4-----------0-------------------|
D:------4-------4-------0-------0-------4-------4-------0-----0-------|
A:--2-------2-------0---------------2-------2-------------------------|
E:--------------------------3-----------------------3-----------------|


   Am               G             Am                G
e:----------------------------------------------------------3------||
B:------1p0-1p0---0-----------0-------1-----1p0---0----------------||
G:----2---------2-----0---0h2-----2-------2-----2-------0-------0--||
D:------2-------2-------0-------0-------2-------2-----0-------0----||
A:--0-------3-------2---------------0-------3-------2--------------||
E:--------------------------3-----------------------------3--------||

Gradually fade out while playing the above Am - G section repeatedly
to end the song.

Alternatively, you can play the song all the way through from the 
beginning a second time before fading out at the end. I prefer 
doing this as the song seems to end too soon when played through 
only one time.


Source: Doobie Brothers album titled The Captain & Me, released in 1973.
            
Submit corrections

comments powered by Disqus
↑ Back to top | Doobie Brothers Tabs for Busted Down Around. Lyrics for acoustic guitar and electric guitar. Tablatures and chords are parodies/interpretations of the original songs. You may use it for private study, scholarship, research or language learning purposes only