» » »

Dont Look Down, Cop Out Tabs (ver.1)

Artists:  A B C D E F G H I J K L M N O P Q R S T U V W X Y Z # 

Cop Out Tabs (ver.1)

Dont Look Down Tabs
 Rating:
4/5 (4 votes)
Cop Out lessons Tabs too difficult? Try these video lessons and learn fast
                Dont Look Down - Cop Out

Intro:
e|---------2-1-----------------x--------x------------------------------------|
B|-2-5-3---3-3-----------------x--------x------------------------------------|
G|-2-6-4-1-2-2---6-7-----------x--------x------------------------------------|
D|-2-6-4-2-----7-6-7-5-6-----7-x-7/20-7-x------------------------------------|
A|---4-2-2-----7-4-5-5-6--x4-7-x-7/10-7-x------------------------------------|
E|-------------5-----3-4-----5-x-5/8--5-x------------------------------------|
Verse:
e|---------------------------x-----------------------------------------------|
B|---------------------6-6---x-----------------------------------------------|
G|-----6-6-4-4-----7-7-7-7---x-----------------------------------------------|
D|-7-7-6-6-4-4-2-2-7-7-7-7-7-x-7/10------------------------------------------|
A|-7-7-4-4-2-2-2-2-5-5-5-5-7-x-7/10------------------------------------------|
E|-5-5---------0-0---------5-x-5/8-------------------------------------------|
Chorus:
e|---------------------------------------------------------------------------|
B|---------------------------------6-6---------------------------------------|
G|-----5-5-7-7-9-9-----6-6-4-4-6-6-7-7---------------------------------------|
D|-7-7-5-5-7-7-9-9--x2-6-6-4-4-6-6-7-7---------------------------------------|
A|-7-7-3-3-5-5-7-7-----4-4-2-2-4-4-5-5---------------------------------------|
E|-5-5-----------------------------------------------------------------------|


e|--------------------------------------------------------------------------|
B|--------------------------------------------------------------------------|
G|-----6-6-7-7--------------------------------------------------------------|
D|-7-7-6-6-7-7-5-5-6--x4----------------------------------------------------|
A|-7-7-4-4-5-5-5-5-6--------------------------------------------------------|
E|-5-5---------3-3-4--------------------------------------------------------|

e|---------------------------------------------------------------------------|
B|---------------------------------------------------------------------------|
G|---------------------------------------------------------------------------|
D|-3-3-2-2-7-7-5-5-----------------------------------------------------------|
A|-3-3-2-2-7-7-5-5-----------------------------------------------------------|
E|-1-1-0-0-5-5-3-3-----------------------------------------------------------|

Chorus

e|---------------------------------------------------------------------------|
B|---------------------------------6-6---------------------------------------|
G|-----5-5-7-7-9-9-----6-6-4-4-6-6-7-7---------------------------------------|
D|-7-7-5-5-7-7-9-9--x2-6-6-4-4-6-6-7-7---------------------------------------|
A|-7-7-3-3-5-5-7-7-----4-4-2-2-4-4-5-5---------------------------------------|
E|-5-5-----------------------------------------------------------------------|

e|--------------------------------------------------------------------------|
B|--------------------------------------------------------------------------|
G|-----6-6-7-7--------------------------------------------------------------|
D|-7-7-6-6-7-7-5-5-6--x4----------------------------------------------------|
A|-7-7-4-4-5-5-5-5-6--------------------------------------------------------|
E|-5-5---------3-3-4--------------------------------------------------------|


heres the lyrics in the song i herd, but it was really hard to hear
so there not perfect, oh well, see ya

Id be the last one to say is there anything wrong
but singing about your love and the things that youve done
in fact those make the best of songs

Id be the last one to say is there anything wrong
but singing about your love and the things that youve done
in fact those make the best of songs

but i think its pathetic you confessed all your sins
and your way to keep your laugh up to ill
but still afraid to fable the riseing sun

why do you hide all your faith from the world
when no one agrees that your alive
i dont understand those tricks go throw me off the curb
woundering what you have got to hide

leaving here without who you are
how would he feel if he did the same to you

who said youll write about every day is the favorite for you
and i have nothing but everything for everyday to give to you
if so it brakes the evidence and the lyrcis to put down
cause you got bigger thing to worry bout

why do you hide all your faith from the world
when no one agrees that your alive
i dont understand those tricks go throw me off the truth
woundering what you have got to hide

leaving here without who you are
how would he feel if he did the same to you
            
Submit corrections

comments powered by Disqus
↑ Back to top | Dont Look Down Tabs for Cop Out. Lyrics for acoustic guitar and electric guitar. Tablatures and chords are parodies/interpretations of the original songs. You may use it for private study, scholarship, research or language learning purposes only