» » »

Donovan, Mellow Yellow Tabs (ver.2)

Artists:  A B C D E F G H I J K L M N O P Q R S T U V W X Y Z # 

Mellow Yellow Tabs (ver.2)

Donovan Tabs
Rating:
0/5 (0 votes)
Mellow Yellow lessons Tabs too difficult? Try these video lessons and learn fast
                -------------------------------------------------------------------------------
                             MELLOW YELLOW - Donovan
-------------------------------------------------------------------------------

Tuning: e B G D A D

Don't use heavy distortion, it has sort of a twang to it.

verse:
  Dmaj         Gmaj        Dmaj        Amaj  G#maj Gmaj
e|------------------------------------------------------------------------|
B|------------------------------------------------------------------------|
G|------------------------------------------------------------------------|
D|-7--7--7---0-5--5--5--5--7--7--7---0-7--7--7--6--5--5--5--5--5--5--5--5-|
A|-5--5--5-5---5--5--5--5--5--5--5-5---7--7--7--6--5--5--5--5--5--5--5--5-|
D|-0--0--0-----5--5--5--5--0--0--0-----7--7--7--6--5--5--5--5--5--5--5--5-|

   Amaj
e|-------------------------|
B|-------------------------|
G|-------------------------|
D|-2--2--2--2--2--2--2--2--|
A|-0--0--0--0--0--0--0--0--|
E|-------------------------|


chorus:
     Dmaj          Gmaj  Amaj      Dmaj          Gmaj  Amaj
e|-----------------------------|-----------------------------|
B|-----------------------------|-----------------------------|
G|-----------------------------|-----------------------------|
D|---7--7--7---0---5--5--7--7--|---7--7--7---0---5--5--7--7--|
A|-0-5--5--5-5-----5--5--7--7--|-0-5--5--5-5-----5--5--7--7--|
E|---0--0--0-----0-5--5--7--7--|---0--0--0-----0-5--5--7--7--|

     Dmaj          Gmaj  Amaj         
e|------------------------------------------------|
B|------------------------------------------------|
G|------------------------------------------------|
D|---7--7--7---0---5--5--2--2--2--2--222222222222-|
A|-0-5--5--5-5-----5--5--0--0--0--0--000000000000-|
E|---0--0--0-----0-5--5---------------------------|


brass solo/chorus:
     Dmaj          Gmaj  Amaj      Dmaj          Gmaj  Amaj          
e|-----------------------------|-----------------------------|
B|-----------------------------|-----------------------------|
G|-----------------------------|-----------------------------|
D|---7--7--7---0---5--5--7--7--|---7--7--7---0---5--5--7--7--|
A|-0-5--5--5-5-----5--5--7--7--|-0-5--5--5-5-----5--5--7--7--|
E|---0--0--0-----0-5--5--7--7--|---0--0--0-----0-5--5--7--7--|


    Dmaj          Gmaj  Amaj    Amaj Cmaj Amaj Cmaj Amaj Bmaj C#maj    
e|-----------------------------|-------------------------|
B|-----------------------------|----5--5-----5-----------|
G|-----------------------------|----5--5-----5-----------|
D|---7--7--7---0---5--5--7--7--|-2--5--5--2--5--2--4--6--|
A|-0-5--5--5-5-----5--5--7--7--|-0--------0-----0--2--4--|
E|---0--0--0-----0-5--5--7--7--|-------------------------|



Order:
verse
chorus
verse
chorus
verse 
chorus
verse (under brass solo)
brass solo/chorus
verse
chorus
verse
chorus



************************************

| /   slide up
| \   slide down
| h   hammer-on
| p   pull-off
| ~   vibrato
| +   harmonic
| x   Mute note
| b   Bend
| pb  Pre-bend
| br  Bend release
| pbr Pre-bend release
| brb Bend release bend

************************************
            
Submit corrections

comments powered by Disqus
↑ Back to top | Donovan Tabs for Mellow Yellow. Lyrics for acoustic guitar and electric guitar. Tablatures and chords are parodies/interpretations of the original songs. You may use it for private study, scholarship, research or language learning purposes only