>
 >
Jennifer Juniper

Jennifer Juniper Guitar Tabs

Donovan - Jennifer Juniper chords, tabs, tablatures, lyrics

Guitar lessons | Add/correct | Request | Top 50 tabs Artists:  A B C D E F G H I J K L M N O P Q R S T U V W X Y Z 0-9

Jennifer Juniper Guitar Tabs – Donovan

CD, Sheet music, Poster

Do you like Jennifer Juniper? Share with your friends now
ChordsChords v2Chords v3TabsTabs v2Ukulele
-------------------------------------------------------------------------------
-------------------------------------------------------------------------------

Tuning:Standard
  This is my first tab. I know it is not bang on but its close enough to sing along to.
 
                               VERSE 1
  (D)                             (A)
e|-3-2-------------3-2-------------------------------------------0-----------|
B|-3-3---3---------3-3---3---------5-----3-2-0-----------2---2-3-------------|
G|-----------2---2-----------2---2---------------2---2-4---------------------|
D|-----0-------0-------0-------0-------2-------2-------2-------2-------------|X2
A|-0-------0-------0-------0-------0-------0-------0-------0-----------------|
E|---------------------------------------------------------------------------|
   (D)             (A)             (D)             (A)
e|0-2---5-5-3-2-----------2-------0-2---5-5-3-2-----------2------------------|
B|0-3---3-3-3-3---3-5---------5---0-3---3-3-3-3---3-5---------5--------------|
G|---------------------------------------------------------------------------|
D|------0-------0-------2-------2-------0-------0-------2-------2------------|
A|--0-------0-------0-------0-------0-------0-------0-------0----------------|
E|---------------------------------------------------------------------------|
   (G)             (A)             (D)             (A) (D)
e|0-3---3-3-2-0---------------0-----2---0-2-3-2-0----------------------------|
B|0-0---0-0-0-0---0-2-----2-3-----0-3-------------3-2---3--------------------|
G|----------------0-2-----2-2-----0-2---------------2---2--------------------|
D|------0-------0-------2-------2-------0-------0-------0--------------------|
A|------------------0-------0-------0-------0-------0------------------------|
E|--3-------3----------------------------------------------------------------|

                                VERSE 2
  (D)                             (A)
e|-3-2-------------3-2-------------------------------------------0-----------|
B|-3-3---3---------3-3---3---------5-----3-2-0-----------2---2-3-------------|
G|-----------2---2-----------2---2---------------2---2-4---------------------|
D|-----0-------0-------0-------0-------2-------2-------2-------2-------------|X2
A|-0-------0-------0-------0-------0-------0-------0-------0-----------------|
E|---------------------------------------------------------------------------|
   (D)             (A)             (D)             (A)
e|0-2---5-5-3-2-----------2-------0-2---5-5-3-2-----------2------------------|
B|0-3---3-3-3-3---3-5---------5---0-3---3-3-3-3---3-5---------5--------------|
G|---------------------------------------------------------------------------|
D|------0-------0-------2-------2-------0-------0-------2-------2------------|
A|--0-------0-------0-------0-------0-------0-------0-------0----------------|
E|---------------------------------------------------------------------------|
   (G)             (A)             (D)              
e|0-3---3-3-2-0---------------0-----2---0-2-3-2-0----------------------------|
B|0-0---0-0-0-0---0-2-----2-3-----0-3-------------3--------------------------|
G|----------------0-2-----2-2-----0-2----------------------------------------|
D|------0-------0-------2-------2-------0-------0----------------------------|
A|------------------0-------0-------0-------0-------0------------------------|
E|--3-------3----------------------------------------------------------------|

                                  BREAK
  (D)         (G)                             (D)   
e|-----0-2-------------------------------------------------------------0---2-|
B|-3---------0-------0-----0---3-----2-----0---------3-------------3---------|
G|---------------------------------------------2---------2---2---------------|
D|-0-------0-------0-------0-------0-------0-------0-------0-------0-------0-|
A|-----0---------------------------------------0-------0-------0-------0-----|
E|-------------3-------3-------3-------3-------------------------------------|
  (A)             (G)    
e|-5---------------3-2-0-----------3-2-0---------------------------------2---3--|
B|-------5-------0-------3---------------3---3-0-------------2---3---5----------|
G|-----------2-------------------------------------2-----2-4--------------------|
D|-----2-------2-------0-------0-------0-------0-------2-------2-------2-------2|
A|-0-------0---------------------------------------0-------0-------0-------0----|
E|-----------------3-------3-------3-------3------------------------------------|

  VERSE 3 & 4 SAME AS 1 & 2
  END SONG BY REPEATING END OF VERSE 1
************************************

| /   slide up
| \   slide down
| h   hammer-on
| p   pull-off
| ~   vibrato
| +   harmonic
| x   Mute note
| b   Bend
| pb  Pre-bend
| br  Bend release
| pbr Pre-bend release
| brb Bend release bend

************************************





Comments


Popular Donovan tabs & chords
Brother Sun Sister Moon 1 Chords
Donna Donna 1 Chords
People Used To Chords
Wear Your Love Like Heaven 1 Chords
Colors Tabs
Universal Soldier Tabs
Universal Soldier Picking Tabs
Belated Forgiveness Plea Ukulele
I Love My Shirt Ukulele
Wear Your Love Like Heaven Ukulele


Song lyrics



↑ Back to top | Tablatures and chords are parodies/interpretations of the original songs. You may use it for private study, scholarship, research or language learning purposes only
© 2014 AZChords.com Contact us | Privacy policy | DMCA | Add/correct tabs | Request tabs | Top 50 tabs