>
 >
Codine 1

Codine 1 Guitar Tabs

Donovan - Codine 1 chords, tabs, tablatures, lyrics

Guitar lessons | Add/correct | Request | Top 50 tabs Artists:  A B C D E F G H I J K L M N O P Q R S T U V W X Y Z 0-9

Codine 1 Guitar Tabs – Donovan

CD, Sheet music, Poster

Do you like Codine 1? Share with your friends now
ChordsTabsTabs v2Ukulele
                                    CODINE                (Donovan)                      


guitar (Capo 1) the first string is tuned in drop D
     D5                                                        
     Q    E  E  E  E     Q    E  E  E  E     Q    E  E  E  E   
D||-------0--0--0--0--|-------0--0--0--0--|-------0--0--0--0--|
B||-------3--3--3--3--|-------3--3--3--3--|-------3--3--3--3--|
G||--2----2--2--2--2--|-------2--2--2--2--|-------2--2--2--2--|
D||-------------------|-------------------|-------------------|
A||-------------------|--3----------------|--2----------------|
E||-------------------|-------------------|-------------------|


  Q    Q    Q       Q    Q    Q       Q    Q    Q       Q    Q    Q     
-------0----0----|-------0----0----|-------0----0----|-------0----0----|
-------3----3----|-------3----3----|-------3----3----|-------3----3----|
-------2----2----|-------2----2----|-------2----2----|-------2----2----|
-----------------|-----------------|-----------------|-----------------|
--2--------------|--0--------------|--0--------------|--0--------------|
-----------------|-----------------|-----------------|-----------------|


  Q    Q    E  E      Q    E  E  E  E     Q    E  E  E  E     Q    E  E  E  E   
-------0----0------|-------0--0--0--0--|-------0--0--0--0--|-------0--0--0--0--|
-------3----3------|-------3--3--3--3--|-------3--3--3--3--|-------3--3--3--3--|
-------2----2--0h--|--2----2--2--2--2--|-------2--2--2--2--|-------2--2--2--2--|
-------------------|-------------------|-------------------|-------------------|
--0----------------|-------------------|--3----------------|--2----------------|
-------------------|-------------------|-------------------|-------------------|


  G         F                                                               
  Q    Q    Q       Q    E  E  E  E     Q    Q    Q       Q    E  E  E  E   
-----------------|-------0--0--0--0--|-----------------|-------0--0--0--0--|
--0----0----1----|-------3--3--3--3--|--0----0----1----|-------3--3--3--3--|
--0----0----2----|-------2--2--2--2--|--0----0----2----|-------2--2--2--2--|
--0----0----3----|--0----------------|--0----0----3----|--0----------------|
--2----2----3----|-------------------|--2----2----3----|-------------------|
--3----3---------|-------------------|--3----3---------|-------------------|


                                            D5                
  Q    E  E  E  E     Q    E  E  E  E       Q    E  E  E  E   
-------0--0--0--0--|-------0--0--0--0--||--------0--0--0--0--|
-------3--3--3--3--|-------3--3--3--3--||--------3--3--3--3--|
-------2--2--2--2--|-------2--2--2--2--||*-------2--2--2--2--|
--0----------------|--0----------------||*--0----------------|
-------------------|-------------------||--------------------|
-------------------|-------------------||--------------------|


  Q    E  E  E  E     Q    E  E  E  E     Q    Q    Q       Q    Q    Q     
-------0--0--0--0--|-------0--0--0--0--|-------0----0----|-------0----0----|
-------3--3--3--3--|-------3--3--3--3--|-------3----3----|-------3----3----|
-------2--2--2--2--|-------2--2--2--2--|-------2----2----|-------2----2----|
-------------------|-------------------|-----------------|-----------------|
--3----------------|--2----------------|--0--------------|--0--------------|
-------------------|-------------------|-----------------|-----------------|


  Q    Q    Q       Q    Q    Q       Q    E  E  E  E     Q    E  E  E  E   
-------0----0----|-------0----0----|-------0--0--0--0--|-------0--0--0--0--|
-------3----3----|-------3----3----|-------3--3--3--3--|-------3--3--3--3--|
-------2----2----|-------2----2----|-------2--2--2--2--|-------2--2--2--2--|
-----------------|-----------------|--0----------------|-------------------|
--0--------------|--0--------------|-------------------|--3----------------|
-----------------|-----------------|-------------------|-------------------|


  Q    E  E  E  E     Q    Q    Q       Q    Q    Q       Q    Q    Q     
-------0--0--0--0--|-------2----2----|-------2----2----|-------2----2----|
-------3--3--3--3--|-------2----2----|-------2----2----|-------2----2----|
-------2--2--2--2--|-------2----2----|-------2----2----|-------2----2----|
-------------------|-------2----2----|-------2----2----|-------2----2----|
--2----------------|--0--------------|--0--------------|--0--------------|
-------------------|-----------------|-----------------|-----------------|


  Q    Q    Q       Q    E  E  E  E     Q    E  E  E  E     Q    E  E  E  E   
-------2----2----|-------0--0--0--0--|-------0--0--0--0--|-------0--0--0--0--|
-------2----2----|-------3--3--3--3--|-------3--3--3--3--|-------3--3--3--3--|
-------2----2----|-------2--2--2--2--|-------2--2--2--2--|-------2--2--2--2--|
-------2----2----|--0----------------|-------------------|-------------------|
--0--------------|-------------------|--3----------------|--2----------------|
-----------------|-------------------|-------------------|-------------------|


  A                                                                     
  Q    Q    Q       Q    Q    Q       Q    Q    Q       Q    Q    Q     
-------2----2----|-------2----2----|-------2----2----|-------2----2----|
-------2----2----|-------2----2----|-------2----2----|-------2----2----|
-------2----2----|-------2----2----|-------2----2----|-------2----2----|
-------2----2----|-------2----2----|-------2----2----|-------2----2----|
--0--------------|--0--------------|--0--------------|--0--------------|
-----------------|-----------------|-----------------|-----------------|


  Q    E  E  E  E     Q    E  E  E  E     Q    E  E  E  E     Q    Q    Q     
-------0--0--0--0--|-------0--0--0--0--|-------0--0--0--0--|-------0----0----|
-------3--3--3--3--|-------3--3--3--3--|-------3--3--3--3--|-------3----3----|
-------2--2--2--2--|-------2--2--2--2--|-------2--2--2--2--|-------2----2----|
--0----------------|-------------------|-------------------|-----------------|
-------------------|--3----------------|--2----------------|--0--------------|
-------------------|-------------------|-------------------|-----------------|


  Q    E  E  E  E     Q    E  E  E  E     Q    E  E  E  E     Q    Q    Q     
-------0--0--0--0--|-------0--0--0--0--|-------0--0--0--0--|-----------------|
-------3--3--3--3--|-------3--3--3--3--|-------3--3--3--3--|--0----1----1----|
--2----2--2--2--2--|-------2--2--2--2--|-------2--2--2--2--|--0----2----2----|
-------------------|-------------------|-------------------|--0----3----3----|
-------------------|--3----------------|--2----------------|--2----3----3----|
-------------------|-------------------|-------------------|--3--------------|


  Q    E  E  E  E     Q    Q    Q       Q    E  E  E  E     Q    E  E  E  E   
-------0--0--0--0--|-----------------|-------0--0--0--0--|-------0--0--0--0--|
-------3--3--3--3--|--0----1----1----|-------3--3--3--3--|-------3--3--3--3--|
-------2--2--2--2--|--0----2----2----|-------2--2--2--2--|-------2--2--2--2--|
--0----------------|--0----3----3----|--0----------------|--0----------------|
-------------------|--2----3----3----|-------------------|-------------------|
-------------------|--3--------------|-------------------|-------------------|


  Q    E  E  E  E     Q    E  E  E  E   4x  H.             
-------0--0--0--0--|-------0--0--0--0---||--0------------||
-------3--3--3--3--|-------3--3--3--3---||--3------------||
-------2--2--2--2--|-------2--2--2--2--*||--2------------||
--0----------------|--0----------------*||--0------------||
-------------------|--------------------||---------------||
-------------------|--------------------||---------------||




Duration Legend
---------------
W - whole
H - half
Q - quarter
E - 8th
S - 16th
T - 32nd
X - 64th
. - note dotted
|-n-|  - n-tuplets


Tablature Legend
----------------
L - tied note
x - dead note
g - grace note
(n) - ghost note
> - accentuded note
NH - natural harmonic
AH - artificial harmonic
TH - tapped harmonic
SH - semi harmonic
PH - pitch harmonic
h - hammer on
p - pull off
b - bend
br - bendRelease
pb - preBend
pbr - preBendRelease
brb - bendReleaseBend
\n/ - tremolo bar dip
\n - tremolo bar dive
-/n - tremolo bar Release up
/n\ - tremolo bar inverted dip
/n - tremolo bar return
-\n - tremolo bar Release down
S - shift slide
s - legato slide
/ -  slide into from below or out of upwards
\ -  slide into from above or out of downwards
~ - vibrato
W - wide vibrato
tr - trill
TP - tremolo picking
T - tapping
S - slap
P - pop
< - fade in
^ - brush up
v - brush down





Comments


Popular Donovan tabs & chords
Guinevere Chords
Hurdy Gurdy Man 1 Chords
London Town Chords
Teen Angel Chords
Ballad Of Geraldine Tabs
Colors Tabs
Breezes Of Patchulie Ukulele
Codine Ukulele
Season Of The Witch Ukulele
There Is A Mountain Ukulele


Song lyrics



↑ Back to top | Tablatures and chords are parodies/interpretations of the original songs. You may use it for private study, scholarship, research or language learning purposes only
© 2014 AZChords.com Contact us | Privacy policy | DMCA | Add/correct tabs | Request tabs | Top 50 tabs