» » »

Donovan, Atlantis Tabs (ver.1)

Artists:  A B C D E F G H I J K L M N O P Q R S T U V W X Y Z # 

Atlantis Tabs (ver.1)

Donovan Tabs
 Rating:
4.2/5 (5 votes)
Atlantis lessons Tabs too difficult? Try these video lessons and learn fast
                Donovan - Atlantis



Hey there people
that's my first tab
I hope there are no mistakes in it


            C

e ---------------------------------0----3-----------------|
B ---1------------------------1---------------------------|
G --------0---------0-------------------------------------|
D -------------2------------------------------------------|
A ---3-------------------3--------------------------------|
E --------------------------------------------------------|


            D

e ---3----0-----------------------------0-----------------|
B -------------3-------------------3----------------------|
G ------------------2-------------------------------------|
D ---0-------------------0--------------------------------|
A ----------------------------0---------------------------|
E --------------------------------------------------------|


            F

e ---1------------------------1----1----3--------------------|
B --------1---------1----------------------------------------|
G -------------2---------------------------------------------|
D ---3-------------------3-----------------------------------|
A -----------------------------------------------------------|
E -----------------------------------------------------------|


            C                      G

e ---1----0---------1----0------------------------------------|
B -------------1------------------------3---------------------|
G -------------------------------------------0---------0------|
D ------------------------------------------------0-----------|
A ---3--------------------------------------------------------|
E --------------------------------------3---------------------|

than repeat from beginning


that's just the hole song
have fun ;-)
            
Submit corrections

comments powered by Disqus
↑ Back to top | Donovan Tabs for Atlantis. Lyrics for acoustic guitar and electric guitar. Tablatures and chords are parodies/interpretations of the original songs. You may use it for private study, scholarship, research or language learning purposes only