>
 >
Workin' It

Workin' It Bass Tabs

Don Henley - Workin' It chords, tabs, tablatures, lyrics

Guitar lessons | Add/correct | Request | Top 50 tabs Artists:  A B C D E F G H I J K L M N O P Q R S T U V W X Y Z 0-9

Workin' It Bass Tabs – Don Henley

CD, Sheet music, Poster

Do you like Workin' It? Share with your friends now
Bass Tabs


THIS SONG IS PLAYED WITH A 5-STRING BASS, WITH A LOT OF TREBLE.
JUST WATCH THE DVD LIVE INSIDE JOB! IT'S GREAT! 

IF YOU HEAR THAT SOMETHING IS "WRONG", LET ME KNOW...
********************************************************

Intro:
G --------------------|---------------------|------------------|
D --------------------|---------------------|------------------|
A --------------------|---------------------|------------------|
E --------------------|-------------------2-|------------------|
B -0-2-0-2--0-2-0-2-5-|--0-2-0-2--0-2-0-2---|-2-0-2--0-2-0-2-5-|

                       *guitars*
----------------------|---------------------|--------------------|
----------------------|---------------------|--------------------|
----------2-4-4-4-4-2-|---------------------|--------------------|
----------------------|-------------------2-|--------------------|
-0-2-0-2--------------|-2-0-2--0-2-0-2------|-0-2-0-2--0-2-0-2-5-|

---------------------|--------------------|----------------------|
---------------------|--------------------|----------------------|
---------------------|--------------------|----------------------|
---------0-2-0-2-2-4-|--------------------|----------0-2-0-2-2-4-|
-2-0-2---------------|-0-2-0-2--0-2-0-2-5-|-0-2-0-2--------------|

--------------------|----------------------|----------------------|
--------------------|----------------------|----------------------|
--------------------|----------------------|----------------------|
--------------------|------------2-2-2-2-4-|------------2-2-2-2-4-|
-0-2-0-2--0-2-0-2-5-|-2-5-2-5--5-----------|-2-5-2-5--5-----------|

Verse 1:
-------------------|--------------------|----------------------|
-------------------|--------------------|----------------------|
-------------------|--------------------|----------------------|
---------0-2-0-2-2-|------------------2-|----------0-2-0-2-2-4-|
-0-2-0-2-----------|-0-2-0-2--0-2-0-2---|-0-2-0-2--------------| 

---------------------------|--------------------|--------------------|
---------------------------|--------------------|--------------------|
---------------------------|--------------------|--------------------|
-----------2-4-4-4-4-4-2---|----------0-2-0-2-2-|--------------------|
-0-2-0-2-----------------4-|-0-2-0-2------------|-0-2-0-2--0-2-0-2-5-|

----------------------|------------1-------------|
----------------------|----------2---4-2---2-----|
----------------------|------------------4---4---|
----------0-2-0-2-2-4-|------------------------4-|
-0-2-0-2--------------|-0-2-0-2------------------|

Pre-chorus + chorus:
--------------|--------------|--------------------|---------------------------|
--------------|--------------|--------------------|---------------------------|
--------------|-2-2--2-2-2-2-|--------------------|---------------------------|
-5-5--5-5-5-5-|--------------|--------------------|----------2-4-4-4-4-4-2----|
--------------|--------------|-0-2-0-2--0-2-0-2-5-|-0-2-0-2-----------------4-|

--------------|----------------------|--------------------|
--------------|----------------------|--------------------|
--------------|-2-2--2-4-4-4-4-4-2---|--------------------|
-5-5--5-5-5-5-|--------------------4-|--------------------|
--------------|----------------------|-0-2-0-2--0-2-0-2-5-|

--------------------|----------------------|--------------------|
--------------------|----------------------|--------------------|
--------------------|----------------------|-2-4-2-4-2-4-2------|
------------------2-|----------0-2-0-2-2-4-|----------------4-2-|
-0-2-0-2--0-2-0-2---|-0-2-0-2--------------|--------------------|..*rest*..

Verse 2:
--------------------|------------------|----------------------|
--------------------|------------------|----------------------|
--------------------|------------------|----------------------|
----------0-2-0-2-2-|------------------|----------0-2-0-2-2-4-|
-0-2-0-2------------|-0-2-0-2--0-2-0-2-|-0-2-0-2--------------|

------------------|--------------------|--------------------|
------------------|--------------------|--------------------|
------------------|--------------------|--------------------|
------------------|----------0-2-0-2-2-|--------------------|
-0-2-0-2--0-2-0-2-|-0-2-0-2------------|-0-2-0-2--0-2-0-2-5-|

----------------------|--------------------------|
----------------------|--------------------------|
----------------------|----------2-4-4-4-2-------|
----------0-2-0-2-2-4-|--------------------4-2---|
-0-2-0-2--------------|-0-2-0-2----------------5-|

Some kind of"Bridge":
---|---|-------|---|----------------------|--------------------|
---|---|-------|---|----------------------|--------------------|
---|---|-------|---|----------------------|--------------------|
---|---|-------|---|----------0-2-0-2-2-4-|--------------------|
-0-|-0-|-0---2-|-0-|-0-2-0-2--------------|-0-2-0-2--0-2-0-2-5-|

----------------------|---------------------------|
----------------------|---------------------------|
----------------------|-------------4-2-4-2-------|
----------0-2-0-2-2-4-|-----------5---------5-2---|
-0-2-0-2--------------|-2-5-2-5-----------------5-|

Pre-chorus + Chorus:
--------------|------------------|--------------------|--------------------|
--------------|------------------|--------------------|--------------------|
--------------|-2-4-4-4-4-4--2---|--------------------|--------------------|
-5-5--5-5-5-5-|----------------4-|--------------------|--------------------|
--------------|------------------|-0-2-0-2--0-2-0-2-5-|-0-2-0-2--0-2-0-2-5-|

--------------|---------------------|--------------------|
--------------|---------------------|--------------------|
--------------|-2-2--2-2-2-/-4-\-2--|--------------------|
-5-5--5-5-5-5-|---------------------|--------------------|
--------------|---------------------|-0-2-0-2--0-2-0-2-5-|

--------------------|--------------------|--------------------|
--------------------|--------------------|--------------------|
--------------------|--------------------|-2-4-2-4-2-4-2------|
------------------2-|--------------------|----------------4-2-|
-0-2-0-2--0-2-0-2---|-0-2-0-2--0-2-0-2-5-|--------------------|..*rest*..

Bridge:
-----|-------|--------------|-------|---4-6-7-6-4---------|
-----|-----7-|-7-7-7--------|-------|-4-----------4-------|
-----|---7---|-------7-7----|-----2-|---------------4-2-2-|
-5-5-|-5-----|------------5-|-------|---------------------|
-----|-------|--------------|-0-0---|---------------------|

---------------|-6-6---6-------|---------------4-4--7-7-7-7-/-13-|
-------------7-|-----7---7-----|---------5-5-5-------------------|
------7-7-7----|-----------7---|------5--------------------------|
-5-5-----------|---------------|-3-3-----------------------------|
---------------|-------------0-|---------------------------------|

Solo:
--------------------|-------------------|--------------------|-------------|
--------------------|-------------------|--------------------|-------------|
--------------------|-------------------|--------------------|-------------|
--------------------|---------0-2-0-2-2-|--------------------|-------------|
-0-2-0-2--0-2-0-2-5-|-0-2-0-2-----------|-0-2-0-2--0-2-0-2-5-|-0-2-0-2-----|

--------------------|------------------------------|
--------------------|------------------------------|
--------------------|----------2-2-4-2-4-2-4-2-----|
--------------------|--------------------------4-2-|
-0-2-0-2--0-2-0-2-5-|-0-2-0-2----------------------|

--------------------|-13-9-11-9------9-----------------|
--------------------|-----------11-9---11-9------------|
--------------------|-----------------------11-9-7-----|
--------------------|------------------------------9-\-|
-0-2-0-2--0-2-0-2-5-|----------------------------------|

----------------|----------------------|----------------------|
----------------|----------------------|----------------------|
----------------|----------------------|----------------------|
----------------|----------------4-----|----------------4-----|
-2--0-2-0-2-2-5-|-2--0-2-0-2-2-5---5-5-|-2--0-2-0-2-2-5---5-5-|

-----------------------------|
-----------------------------|
-----------------------------|
-----------------------------|
-2--2--2-0-2-0-2-2-/-5-5-\-0-|

Verse 3:
--------------------|---------------------|--------------------|
--------------------|---------------------|--------------------|
--------------------|---------------------|--------------------|
--------------------|---------0-2-0-2-2-4-|--------------------|
-0-2-0-2--0-2-0-2-5-|-0-2-0-2-------------|-0-2-0-2--0-2-0-2-5-|

----------------------|--------------------|----------------------|
----------------------|--------------------|----------------------|
------------------2-4-|--------------------|----------------------|
----------0-2-0-2-----|--------------------|----------0-2-0-2-2-4-|
-0-2-0-2--------------|-0-2-0-2--0-2-0-2-5-|-0-2-0-2--------------|

--------------------|--------------------------------|
--------------------|--------------------------------|
--------------------|--------------------------------|
--------------------|-0-2-0-2--2-0-2-0-2-/-6-\-2-----|
-0-2-0-2--0-2-0-2-5-|----------------------------5-2-|

Pre-chorus + chorus:
--------------|----------------------|--------------------|--------------------|
--------------|----------------------|--------------------|--------------------|
--------------|-2-2--2-4-4-4-4-4-2---|--------------------|--------------------|
-5-5--5-5-5-5-|--------------------4-|--------------------|------------------2-|           
--------------|----------------------|-0-2-0-2--0-2-0-2-5-|-0-2-0-2--0-2-0-2---|

--------------|----------------------|----------------------|
--------------|----------------------|----------------------|
--------------|-2-2--2-4-4-4-4-4-2---|----------------------|
-5-5--5-5-5-5-|--------------------4-|----------0-2-0-2-2-4-|
--------------|----------------------|-0-2-0-2--------------|

-------------------------|----------------------|--------------------|
-------------------------|----------------------|--------------------|
---------2-4-4-4-4-4-2---|----------------------|-2-4-2-4-2-4-2------|
-----------------------4-|----------------------|----------------4-2-|
-0-2-0-2--0-2-0-2--------|-0-2-0-2--0-2-0-2-5---|--------------------|..*rest*..

Last kind of "Verse" 
-------------------|--------------------|-------------------|
-------------------|--------------------|-------------------|
-------------------|--------------------|-------------------|
---------0-2-0-2-2-|--------------------|---------0-2-0-2-2-|
-0-2-0-2-----------|-0-2-0-2--0-2-0-2-5-|-0-2-0-2-----------|

----------------------|----------------------|----------1-------|
----------------------|----------------------|------------2-----|
----------------------|----------------------|--------------4---|
----------0-2-0-2-2-4-|----------0-2-0-2-2-4-|----------------4-|
-0-2-0-2--------------|-0-2-0-2--------------|-0-2-0-2----------|

--------------------|----------------------------|
--------------------|----------------------------|
--------------------|----------2-4-2-4-4-4-2-----|
----------0-2-0-2-2-|------------------------4-2-|
-0-2-0-2------------|-0-2-0-2--------------------|

Chorus:
--------------------|----------------------|----------------------|
--------------------|--------------2-------|----------------------|
--------------------|----------2-4---4-----|----------------------|
----------0-2-0-2-2-|------------------4---|----------0-2-0-2-2-4-|
-0-2-0-2------------|-0-2-0-2------------2-|-0-2-0-2--------------|

-------------------|
-------------------|
-2-4-2-4-2-4-2-----|
---------------4-2-|
-------------------|

Another kind of "verse":

---------------------|----------1-------|----------------------|
---------------------|------------2-----|----------------------|
---------------------|--------------4---|----------------------|
-----------0-2-0-2-2-|----------------4-|----------0-2-0-2-2-4-|
-0-2-0-2-------------|-0-2-0-2----------|-0-2-0-2--------------|

----------1-------|----------------------|----------1-------|
------------2-----|----------------------|------------2-----|
--------------4---|----------------------|--------------4---|
----------------4-|----------0-2-0-2-2-4-|----------------4-|
-0-2-0-2----------|-0-2-0-2--------------|-0-2-0-2----------|

----------------------|----------1-------|----------------------|
----------------------|------------2-----|----------------------|
----------------------|--------------4---|----------------------|
----------0-2-0-2-2-4-|----------------4-|----------0-2-0-2-2-4-|
-0-2-0-2--------------|-0-2-0-2----------|-0-2-0-2--------------|

----------1-------|----------------------|----------1-------|
------------2-----|----------------------|------------2-----|
--------------4---|----------------------|--------------4---|
----------------4-|----------0-2-0-2-2-4-|----------------4-|
-0-2-0-2----------|-0-2-0-2--------------|-0-2-0-2----------|

--------|-1-------------|-----|
--------|---4-2-4-2-----|-----|
--------|-----------4-2-|-----|
--------|---------------|-----|
-..etc..|---------------|-0-0-| WORKIN'!

*******WRITTEN BY MORRISON*******





Comments


Popular Don Henley tabs & chords
Talking To The Moon Bass Tabs
Desperado Chords
For My Wedding Chords
For My Wedding 1 Chords
New York Minute Chords
The Last Worthless Evening Chords
Talking To The Moon Intro Tabs
Damn It Rose Ukulele
Heart Of The Matter Ukulele
Taking You Home Ukulele


Song lyrics



↑ Back to top | Tablatures and chords are parodies/interpretations of the original songs. You may use it for private study, scholarship, research or language learning purposes only
© 2014 AZChords.com Contact us | Privacy policy | DMCA | Add/correct tabs | Request tabs | Top 50 tabs