» » »

Talking To The Moon Bass tabs (ver.1)

Artists:  A B C D E F G H I J K L M N O P Q R S T U V W X Y Z # 

Talking To The Moon Bass tabs (ver.1)

Don Henley
Rating:
0/5 (0 votes)

Hard to play? Try these video lessons and learn fast.
                
********************************************************

INTRO: 
G|-------------|
D|-------------|
A|-DON’T-PLAY!-|
E|-------------|

VERSE 1:        “And the only THING...”
|-------------|               |---|-----|-------|---|---|-----|---|----------|
|-------------|               |---|-----|-7-6-5-|---|---|-----|---|-8-/-10---|
|-DON’T-PLAY!-|               |-6-|-6-8-|-------|-6-|-8-|---7-|---|--------8-|
|-------------|               |---|-----|-------|---|---|-----|-6-|----------|

VERSE 2:
|---|-----|---|-----|---|-----|---|-------|---|-----|---|---|---|-------|
|-8-|-8-7-|-5-|-5---|---|-----|---|-------|---|-----|---|---|---|-------|
|---|-----|---|---8-|-6-|-6-5-|---|---5-6-|-8-|-8-6-|-5-|---|---|-------|
|---|-----|---|-----|---|-----|-8-|-8-----|---|-----|---|-8-|-6-|-6-\-1-|

CHORUS:“Talking to...”
|-----|---|-----|---|-----|---|-----|-----|-------|---|-----|---|-----|-------|-3-/-5---|
|-----|---|-----|---|-----|---|-----|-----|-------|---|-----|---|-----|-------|-------3-|
|-----|---|-----|---|-----|-6-|-6-5-|-5-3-|-3-5-6-|-8-|-8-6-|-5-|-5---|-----1-|---------|
|-1-/-|-6-|-6-5-|-3-|-3-1-|---|-----|-----|-------|---|-----|---|---8-|-1-1---|---------|

BRIDGE:
|---|-----|-----|-----|-----|-----|-----|-----|-------|-9-|-9-\-7-|-7-7-|---|-----|-----------|
|---|-----|-----|-----|-----|-----|-----|-----|-----2-|---|-------|-----|---|-----|-----------|
|-5-|-3-5-|-----|-----|---5-|-5-5-|-----|-----|-------|---|-------|-----|---|---3-|-3---5-6-7-|
|---|-----|-\-3-|-3-3-|-3---|-----|-\-3-|-3-3-|-3-/---|---|-------|-----|-3-|-3---|-----------|

SOLO:
|---|-----|-----|-----|---|-------|-----|---|------------|
|-8-|-8-7-|-7-5-|-5---|---|-5-----|-----|---|-8-/-10-----|
|---|-----|-----|---8-|-6-|---8-6-|-6-8-|---|--------8-\-|
|---|-----|-----|-----|---|-------|-----|-6-|------------|

VERSE 3:
|---|---|---|---|-------|---|-------------------|
|---|---|---|---|-------|---|-------------------|
|---|---|---|---|-------|-3-|-------------------|
|-6-|-6-|-6-|-6-|-6-\-3-|---|-1-1-1-1-1-1-1-1-1-|

CHORUS:“Talking to...”
|---|-----|-----|-----|-----|---|-----|-----|---------|---|-----|-----|-----|-----|-----|-------|-----|
|---|-----|-----|-----|-----|---|-----|-----|---------|---|-----|-----|-----|-----|-----|-------|-----|
|---|-----|-----|-----|-----|-6-|-6-5-|-5-3-|-1-3-5-6-|-8-|-8-6-|-6-5-|-5---|-----|-----|-------|-----|
|-6-|-6-5-|-5-3-|-3-1-|-1-/-|---|-----|-----|---------|---|-----|-----|---8-|-8-6-|-6-6-|-6-\-1-|-1-1-|

*…enz
            
Hard to play? Try these video lessons and learn fast. | Correct




comments powered by Disqus
↑ Back to top | Tablatures and chords are parodies/interpretations of the original songs. You may use it for private study, scholarship, research or language learning purposes only