>
 >
Sunset Grill

Sunset Grill Bass Tabs

Don Henley - Sunset Grill chords, tabs, tablatures, lyrics

Guitar lessons | Add/correct | Request | Top 50 tabs Artists:  A B C D E F G H I J K L M N O P Q R S T U V W X Y Z 0-9

Sunset Grill Bass Tabs – Don Henley

CD, Sheet music, Poster

Do you like Sunset Grill? Share with your friends now
Bass TabsChordsUkulele

Tuning: G, D, A, E
It's played on a fretless bass!
---------------------------------

Intro:
|---|---|-13~-|---|---|---|---|-6-15-\-13-|---|-8-6-5---|
|---|---|-----|---|---|---|---|-----------|---|-------9-|
|-6-|-7-|-----|-6-|-7-|-6-|-7-|-----------|-6-|---------|
|---|---|-----|---|---|---|---|-----------|---|---------|

Verse 1:
|---|---|---|------15-\-13-|---|---|-10-\-7-|---|
|---|---|---|---10-11------|---|---|--------|---|
|-6-|-7-|-6-|-7------------|-6-|-7-|--------|-7-|
|---|---|---|--------------|---|---|--------|---|

Pre-chorus:
|----9-8---11---|-----/-10---|-----13~-|
|-11-----9------|---6--------|---6-----|
|-------------9-|-8--------9-|-8-------|
|---------------|------------|---------|

Chorus:
|-----8-/-10-8-----|
|---8--------------|
|-6------------4-4-|
|------------------|	4X

Verse 2:
|---|---|---|---|---|---|-------|---|
|---|---|---|---|---|---|-------|---|
|-6-|-7-|-6-|-7-|-6-|-7-|-9-\-6-|-7-|
|---|---|---|---|---|---|-------|---|

Pre-chorus:

|----9-8---11---|------/-10---5-6-8---|
|-11-----9------|---6-----------------|
|-------------9-|-8---------9-------8-|
|---------------|---------------------|

Chorus:
|-----8-/-10-8-----|
|---8--------------|
|-6------------4-4-|
|------------------|	4X

Bridge:
|---------|---------|---------|---------|
|---------|---------|---------|---------|
|-2--2-2-|---------|-2--2-2-|---------|
|---------|-4-4---4-|---------|-4-4---4-|

|-------6~-|-------9~-|-------8~-|----------|-------|---------|
|----------|----------|----------|-------3~-|-2-2-2-|-2-------|
|-4-4-4----|-7-7-7----|-6-6-6----|----------|-------|---2---2-|
|----------|----------|----------|-1-1-1----|-------|-----0---|

Solo:
|-----|-----|-----8-/-10-8----|
|-----|-----|---8-------------|
|-6-6-|-4-4-|-6-----------4-4-|
|-----|-----|-----------------|  2X

|---|---|-13~-|---|---|----15-13-|
|---|---|-----|---|---|-11-------|
|-6-|-7-|-----|-6-|-7-|----------|
|---|---|-----|---|---|----------|




Verse 3:
|---|---|-------|---|---|---|---|---|
|---|---|-------|---|---|---|---|---|
|-6-|-7-|-9-\-6-|-7-|-6-|-7-|-6-|-7-|
|---|---|-------|---|---|---|---|---|

Pre-chorus:
|----9-8---11---|-----/-10---|-----13~------|
|-11-----9------|---6--------|---6----------|
|-------------9-|-8--------9-|-8--------9-8-|
|---------------|------------|--------------|

Chorus + outro:
|-----8-/-10-8-----|
|---8--------------|
|-6------------4-4-|
|------------------|	2X

|------10-/12-10-----|------10-/-12-10---|----------------|
|---10---------------|---10--------------|-----3-----3----|
|-8--------------6-6-|-8---------------6-|-1-3---3-1---3~-|
|--------------------|-------------------|----------------|

(4:15)

|---|---|---|---|-12-----------------|
|---|---|---|---|----13-15-13-10-8-6-|
|-8-|-6-|-8-|-6-|--------------------|
|---|---|---|---|--------------------|

|---|---|---|---|-8-------|
|---|---|---|---|------10-|
|-8-|-6-|-8-|-6-|---10----|
|---|---|---|---|---------|

	    (5:03)	
|---|---|---|---|-12-------------|---|---|---|---|------------|
|---|---|---|---|----13-15-13-10-|---|---|---|---|-----8-6-8~-|
|-8-|-6-|-8-|-6-|----------------|-8-|-6-|-8-|-6-|-6-8--------|
|---|---|---|---|----------------|---|---|---|---|------------|

(6:22)
|---|---|---|---|---|---|---13-\-12-|---|---|---|---|
|---|---|---|---|---|---|-----------|---|---|---|---|
|-8-|-6-|-8-|-6-|-8-|-6-|-11--------|-8-|-6-|-8-|-6-|
|---|---|---|---|---|---|-----------|---|---|---|---|

|---|---|---|---|--------------------------|---|---|---|---|-12-----------------|
|---|---|---|---|-----8-6-----8-6-----6-8~-|---|---|---|---|----13-15-13-10-8-6-|
|-8-|-6-|-8-|-6-|-6-8-----6-8-----8-6------|-8-|-6-|-8-|-6-|--------------------|
|---|---|---|---|--------------------------|---|---|---|---|--------------------|

|---|---|---|---|
|---|---|---|---|
|-8-|-6-|-8-|-6-|
|---|---|---|---|  ...Fade out...





Comments


Popular Don Henley tabs & chords
They're Not Here, They're Not Coming Bass Tabs
End Of The Innocence 1 Chords
Sometimes Love Just Ain’T Enough Chords
The Last Worthless Evening 1 Chords
Dirty Laundry Tabs
Come Rain Or Come Shine Ukulele
Desperado Ukulele
For My Wedding Ukulele
Goodbye To A River Ukulele
Heart Of The Matter Ukulele


Song lyrics



↑ Back to top | Tablatures and chords are parodies/interpretations of the original songs. You may use it for private study, scholarship, research or language learning purposes only
© 2014 AZChords.com Contact us | Privacy policy | DMCA | Add/correct tabs | Request tabs | Top 50 tabs