>
 >
Inside Job

Inside Job Bass Tabs

Don Henley - Inside Job chords, tabs, tablatures, lyrics

Guitar lessons | Add/correct | Request | Top 50 tabs Artists:  A B C D E F G H I J K L M N O P Q R S T U V W X Y Z 0-9

Inside Job Bass Tabs – Don Henley

CD, Sheet music, Poster

Do you like Inside Job? Share with your friends now
Bass Tabs

Tuning: G, D, A, E, B (I think it's played on a fretless 5-string!)

***---***---***---***---***---***

Intro:
|---|-----|-----|---|---|---------|-----|---|-----|---|
|-2-|-----|---5-|---|---|---------|-----|-2-|-----|---|
|---|-5-4-|-4---|-3-|-3-|-3-\-2-3-|-----|---|-5-4-|-3-|
|---|-----|-----|---|---|---------|-3-\-|---|-----|---|
|---|-----|-----|---|---|---------|-----|---|-----|---|

|-----------------------------------|
|-----------------------------------|
|-3-------------1-2-3-2-1-----------|
|-----1-2-3-4-5-----------5-4-3-2-1-|
|---5-------------------------------|

Verse 1:
|---|-----|---|---|---------|---|-----|---|---------------|
|-2-|-----|---|---|-----2---|-2-|-----|---|---3-2---3-2---|
|---|-5-4-|-3-|-3-|-5-/---3-|---|-5-4-|-3-|-3-----3-----3-|
|---|-----|---|---|---------|---|-----|---|---------------|
|---|-----|---|---|---------|---|-----|---|---------------|

Chorus:
|-----|---------|-------|---|-----|
|-----|-4-\-----|-------|---|-----|
|-----|-----4-4-|---4-3-|-3-|---3-|
|-----|---------|-4-----|---|-3---|
|-5-5-|---------|-------|---|-----|

Instrumental:
|-------|-----6-14-12-5-|-9p7h9-|---------|-------|
|-----2-|-2-/-----------|-------|-10p9h10-|-5p4h5-|
|-5-/---|---------------|-------|---------|-------|
|-------|---------------|-------|---------|-------|
|-------|---------------|-------|---------|-------|

Verse 2:
|---|-----|---|-------|-------|-----|-------|---|
|-2-|-----|---|-------|-------|-2---|-5p4h5-|---|
|---|-5-4-|-3-|---1-3-|-3-/-5-|---4-|-------|-3-|
|---|-----|---|-3-----|-------|-----|-------|---|
|---|-----|---|-------|-------|-----|-------|---|

|---------|-------------|
|---------|-------2-2---|
|---------|-3-2-3-----3-|
|---1-2-3-|-------------|
|-5-------|-------------|

Chorus:
|---------|---------|-------|---|-------|---|-------------------|
|---------|-2-\-----|-------|---|-------|---|-----10-10-10-10-\-|
|---------|-----4-4-|---4-3-|-3-|---1-3-|-3-|-3-/---------------|
|---7-\---|---------|-4-----|---|-3-----|---|-------------------|
|-5-----5-|---------|-------|---|-------|---|-------------------|

|---------|-------|---|---------|---|---------------------------|
|---------|-2-----|---|---------|---|---------------------------|
|---------|---5-4-|-4-|---4---3-|-3-|---3-----------------------|
|---7-\---|-------|---|-4---4---|---|-3---3--3-3-3-3-/-7-7-7-7-|
|-5-----5-|-------|---|---------|---|---------------------------|

Bridge:
|-----------------|-------------------|-----------|-----------|
|-------------5-\-|-------------4-----|-----7-\-2-|-----7-\-2-|
|-----------------|---------------4---|-----------|-----------|
|-5-5-5-5-5-5-----|-2-2-2-2-2-2-----2-|-5-5-------|-5-5-------|
|-----------------|-------------------|-----------|-----------|

|---------------|
|---------2---2-|
|-----------5---|
|-2-2-2-2-------|
|---------------|

|-----------|-----------|---------------|-----------------|
|-----7-\-2-|-----7-\-2-|---------5-4-5-|-----------------|
|-----------|-----------|---------------|-----4-4-5-7---4-|
|-5-5-------|-5-5-------|-2-2-2-2-------|-5-5---------5---|
|-----------|-----------|---------------|-----------------|

|-----------5-5-5-5-5-5-5-\---|
|---------------------------5-|
|-3-3-3-3-/-------------------|
|-----------------------------|
|-----------------------------|

Solo:
|---|-----6-|-9-\-6-5-|-12---9p7h9--5-\-|---|---------|-----|
|-2-|-2-/---|---------|------------------|---|-----9---|-5---|
|---|-------|---------|------------------|---|---7---4-|---3-|
|---|-------|---------|------------------|---|---------|-----|
|---|-------|---------|------------------|-5-|-/-------|-----|

|---|-----|
|---|-----|
|-3-|-----|
|---|-3-\-|
|---|-----|

Verse 3:
|---|-------|---|-------|---|-----|---|---------|-------------|
|---|-------|---|-------|-2-|-----|---|---------|-------------|
|---|-----4-|-3-|-----3-|---|-5-4-|-3-|---------|-------2-2---|
|---|-----3-|---|-------|---|-----|---|---1-2-3-|-3-2-3-----3-|
|-5-|-/-9---|---|-5-/---|---|-----|---|-5-------|-------------|

Chorus + outro:

|-----|---------|-------|---|-------|---|-------------------|
|-----|-2-\-----|-------|---|-------|---|-----10-10-10-10-\-|
|-----|-----4-4-|---4-3-|-3-|---1-3-|-3-|-3-/---------------|
|-----|---------|-4-----|---|-3-----|---|-------------------|
|-5-5-|---------|-------|---|-------|---|-------------------|

|-----|---------|-------|---|-------|-----------|
|-----|-2-\-----|-------|---|-------|-----------|
|-----|-----4-4-|---4-3-|-3-|---1---|-----3---3-|
|-----|---------|-4-----|---|-3-----|-----------|
|-5-5-|---------|-------|---|-----1-|-1-1---1---|

|---------|---------|---------|-----------|-----------|
|---------|-2-\-----|-2-\-----|-----------|-----------|
|---------|-----4-4-|-----3-3-|-3---3---3-|---3-3-3-3-|
|---7-\---|---------|---------|---3---3---|-3---------|
|-5-----5-|---------|---------|-----------|-----------|

|---------|---------|---------|---|-----------|----5-4------5-4---|
|---------|-4-\-----|---------|---|-----------|-------------------|
|---------|-----4-4-|---4---3-|-3-|---3---3-3-|-3-------3-3-----3-|
|---7-\---|---------|-4---4---|---|-3---3-----|-------------------|
|-5-----5-|---------|---------|---|-----------|-------------------|

|-----|---------|---------|---|-----2------2-2-2-2-|---|-----6-|
|-----|-4-\-----|---------|---|---5------5---------|---|-------|
|-----|-----4-4-|---4---3-|-3-|-3------3-----------|-2-|-2-/---|
|-----|---------|-4---4---|---|--------------------|---|-------|
|-5-5-|---------|---------|---|--------------------|---|-------|

|-125-|-3-2---|
|------|-----5-|
|------|-------|
|------|-------|
|------|-------|





Comments


Popular Don Henley tabs & chords
They're Not Here, They're Not Coming Bass Tabs
Come Rain Or Come Shine Chords
Come Rain Or Come Shine 1 Chords
End Of The Innocence 1 Chords
I Can't Stand Still Chords
Taking You Home 1 Chords
The End Of The Innocence Chords
The Boys Of Summer 1 Tabs
The Last Worthless Evening Tabs
Come Rain Or Come Shine Ukulele


Song lyrics



↑ Back to top | Tablatures and chords are parodies/interpretations of the original songs. You may use it for private study, scholarship, research or language learning purposes only
© 2014 AZChords.com Contact us | Privacy policy | DMCA | Add/correct tabs | Request tabs | Top 50 tabs