» » »

Dirty Laundry Tabs (ver.2)

Artists:  A B C D E F G H I J K L M N O P Q R S T U V W X Y Z # 

Dirty Laundry Tabs (ver.2)

Don Henley
Rating:
0/5 (0 votes)

Tabs too difficult? Try these video lessons and learn fast.
                -------------------------------------------------------------------------------
                             Dirty Laundry  (solo's) - Don Henley
-------------------------------------------------------------------------------


Tuning:Standard

This song featured two pretty awesome guitar solos, one by Joe Walsh, the other by Steve Lukather



Joe Walsh's Guitar       Pre-Solo
e|------------------------------------------------------|
B|-------------------------16----15----------13---------|
G|----------------15----14----14----13-13fb--13--/15----|
D|-------15----15----14---------------------------------|
A|-15-14----13------------------------------------------|
E|------------------------------------------------------|

Solo
e|----------------------------------------|-----------------------------------|
B|------16--------16------16------16------|--16-------------------------------|
G|-15fb-------15fb----15fb----15fb---15fb-|-------15====fbr15--13-------------|
D|----------------------------------------|---------------------------15--13--|
A|----------------------------------------|-----------------------------------|
E|----------------------------------------|-----------------------------------|

e|----------------------------------------|-----------------------------------|
B|-16fb--16fb--16-13--13----16------------|-----------------16--15------------|
G|------------------15--15==fbr15-15------|-----------16--15--14--13-14-13----|
D|----------------------------------15-13-|-15--15--15--14----------------15--|
A|----------------------------------------|---14--13--------------------------|
E|----------------------------------------|-----------------------------------|

e|-----13--------------13-----------|-----13--13-13-----------------------------------------|
B|--------16-13--13-------16-13--13-|-------------------------------------------------------|
G|-15fb--------15--15fb--------15---|-15fb---------15fbp13-15fb-13-15fb-13-15fb-13-15fb--13-|
D|----------------------------------|-------------------------------------------------------|
A|----------------------------------|-------------------------------------------------------|
E|----------------------------------|-------------------------------------------------------|

e|------------------------------------------------------------|--------------------|
B|------------------------------------------------------------|---------16--15-----|
G|-15fb--13-15b16.25-13-15fb-13-15fb-13-15fb-13---------------|---15--14--14--13---|
D|---------------------------------------------15-14-13--15---|-15--14----------15\|
A|-----------------------------------------------------13--12-|--------------------|
E|------------------------------------------------------------|--------------------|

e|-18fb-18fb-18-16--16--16----------------|----------------------------------------------|
B|----------------18--18--18-16-18-16--16-|----------------------------------------------|
G|-----------------------------------17---|-17\15p13-15-13--13---------------------------|
D|----------------------------------------|---------------15--15-13----------------------|
A|----------------------------------------|------------------------15\13p11--------------|
E|----------------------------------------|---------------------------------13-11-13-11\-|

e|-18fb-18fb-18-16--16--16----------------|----------------------------------------------|
B|----------------18--18--18-16-18-16--16-|----------------------------------------------|
G|-----------------------------------17---|-17\15p13-15-13--13---------------------------|
D|----------------------------------------|---------------15--15-13----------------------|
A|----------------------------------------|------------------------15\13p11--------------|
E|----------------------------------------|---------------------------------13-11-13-11\-|

e|-16--16-15--15-18--18-16--16-15--15-18-|--18-16--16-15--15-16fb-16fb--16-15-13---|
B|---------------------------------------|--------------------------------------16-|
G|---------------------------------------|-----------------------------------------|
D|---------------------------------------|-----------------------------------------|
A|---------------------------------------|-----------------------------------------|
E|---------------------------------------|-----------------------------------------|

e|-20fb-20fb-20fbv\---------------------|------------------------------------------------|
B|-----------------16fb-16fb-16-13------|------------------------------------------------|
G|--------------------------------15-13-|-15-13------------------------------------------|
D|--------------------------------------|------15-13-15-13-------------------------------|
A|--------------------------------------|------------------15\13p11-13-11----------------|
E|--------------------------------------|--------------------------------13-11-13-11-13\-|



Steve Lukather's Guitar Solo 
e|----------------|-----------------------------|------------------|------------|
B|--3b------------|--6fb--6fb-------------------|------------------|------------|
G|--3b--------3b--|-----------5-3--5-3fb-3--3fb-|-3fbvvvvvvv-3b4r3-|-0~~~~vvvvv-|
D|-----5----------|-----------------------------|------------------|------------|
A|----------------|-----------------------------|------------------|------------|
E|----------------|-----------------------------|------------------|------------|

e|----------------------|----------------------------------|------------------------------------|
B|--------------8-------|------------------------11/-------|-15b16.25-15-14-13-13=p11------11---|
G|-10fbr10===fb---12p10-|-12=b13.75p10-12v12v12v-----12-12-|-----------------15------12-10---10-|
D|----------------------|----------------------------------|------------------------------------|
A|----------------------|----------------------------------|------------------------------------|
E|----------------------|----------------------------------|------------------------------------|

e|----------------------------------------------------|--------15vvvvv\---------|
B|----------------18--18------18------18------18------|-18fb--------------185fb-|
G|-12vvvvvv--------15-----15----15------15---------15-|-------------------------|
D|----------/10/15---15----15--------15-----15--------|-------------------------|
A|----------------------------------------------------|-------------------------|
E|----------------------------------------------------|-------------------------|

e|---------------------------|----------------15------|-------------------------|
B|-18-15---16----------------|---------18-------------|--------------------18fb-|
G|------17fb-17-17fbvvvv15fb======-15----17-15--17fb======-15-17--------0-------|
D|---------------------------|-------17---------------|--------17vvvvv\---------|
A|---------------------------|------------------------|-------------------------|
E|---------------------------|------------------------|-------------------------|

                                                                   *
e|-18-15-15-----15---------------------------------------------|--------------------------|
B|------18----15--18-15--15------------------------------------|---------------------18fb-|
G|---------17fb-------17fb-15-17-15----------------------------|------------------0-------|
D|---------------------------17-17-17-15-15--------------------|-------------0=====-------|
A|--------------------------------------17-17\15-13-15-13------|---------13--13-----------|
E|-------------------------------------------------------15-13-|-15brbrb------------------|

                                                                                   into next bar
e|-15-----18-17p15-17-18-17-18-18fbvvv\|------17-20-19--18-19--20--21-21b-21b-21b-|---21b---
B|---18p15-----------------------------|----18------------------------------------|---|
G|-------------------------------------|-/19--------------------------------------|---|
D|-------------------------------------|------------------------------------------|---|
A|-------------------------------------|------------------------------------------|---|
E|-------------------------------------|------------------------------------------|---|






| *  15b16.75r15b16.75r15b16.75
| b  Bend
| fb Full Bend
| =  Hold  (15==fb)
| r  Release (15fbr15)
| /  slide up
| \  slide down
| h  hammer-on
| p  pull-off
| v  vibrato
| ~  Let Ring
| +  harmonic
| x  Mute note
===============================================================================
            
Tabs too difficult? Try these video lessons and learn fast.


comments powered by Disqus
↑ Back to top | Tablatures and chords are parodies/interpretations of the original songs. You may use it for private study, scholarship, research or language learning purposes only