>
 >
Dirty Laundry

Dirty Laundry Guitar Tabs

Don Henley - Dirty Laundry chords, tabs, tablatures, lyrics

Guitar lessons | Add/correct | Request | Top 50 tabs Artists:  A B C D E F G H I J K L M N O P Q R S T U V W X Y Z 0-9

Dirty Laundry Guitar Tabs – Don Henley

CD, Sheet music, Poster

Do you like Dirty Laundry? Share with your friends now
Bass TabsTabsTabs v2
-------------------------------------------------------------------------------
-------------------------------------------------------------------------------


Tuning:Standard


Guitar 1. Joe Walsh/Steve Lukather

Guitar 2. Danny Kortchmar (rhythm/lead ?)


Intro Chords:    F7#9    Cm7     Bb/Eb 

Gtr. 2
Verses 1 & 3
e|---------------------|-----------------------|-------------------------|
B|---------------------|-----------------------|-------------------------|
G|--10---------10------|-10-10---10------------|-8-----------------------|
D|--10-12-10-x-10-x-10-|-10-10-x-10------------|-8--x-10-x--8--x--10-----|
A|--8--8--8--x-8--x-8--|-8--8--x-8-/12-12-10-8-|-6--x-6--x--6--x--6------|
E|---------------------|-----------------------|-------------------------|

e|---------------------|-----------------------|-------------------------|
B|---------------------|-----------------------|------------3-----1------|
G|--8---------8----8---|--3---------3----------|-3--3-------3-----1------|
D|--8--x-10-x-8--x-8---|--3--x-3--x-3--x-3-----|-3--3--x-3--3-----1------|
A|--6--x-6--x-6--x-6---|--1--x-1--x-1--x-1-----|-1--1--x-1---------------|
E|---------------------|-----------------------|-------------------------|

e|---------------------|-----------------------||
B|---------------------|-------------8-----6---||
G|--10----10---10------|--10-10---10-8-----7---||
D|--10-12-10-x-10-x-12-|--10-10-x-10-8-----8---||
A|--8--8--8--x-8--x-8--|--8--8--x-8------------||
E|---------------------|-----------------------||

verses 2,4 & 5
e|---------------------|-----------------------|------------------|------------------|
B|---------------------|-----------------------|------------------|------------------|
G|--10-10------10------|-10-10-----------------|-8-8--------------|-8-8-------8------|
D|--10-10-10-x-10-x-10-|-10-10-x-10------------|-8-8-x-8-x-8-x-10-|-8-8-x-8-x-8-x-8--|
A|--8--8--8--x-8--x-8--|-8--8--x-8-/12-12-10-8-|-6-6-x-6-x-6-x-6--|-6-6-x-6-x-6-x-6--|
E|---------------------|-----------------------|------------------|------------------|

e|--------------------|--------------------|--------------------|---------------------||
B|--------------------|-----------3----1---|--------------------|---------------------||
G|--3----------3------|-3-------3-3----1---|-10-10------10------|----10---10---10-----||
D|--3-3-5-3--x-3--x-5-|-3--3--x-3-3----1---|-10-10-10-x-10-x-10-|-10-10-x-10-x-10-x-10||
A|--1-1-1-1--x-1--x-1-|-1--1--x-1----------|-8--8--8--x-8--x-8--|-8--8--x-8--x-8--x-8-||
E|--------------------|--------------------|--------------------|---------------------||

Chorus
e|-----------|-----------|--------------------|-------------------|
B|--4----3---|--4----3---|--------------------|-------------------|
G|--3----3---|--3----3---|--------------------|-------------------|
D|--5----3---|--5----3---|--------------------|-------------------|
A|-----------|-----------|--3-3-5-3-3-3-------|--3-3-3-3-3-3-5-3--|
E|-----------|-----------|--1-1-1-1-1-1-/4-3--|--1-1-1-1-1-1-1-1--|

e|-----------|-----------|--------------------|-------------------|
B|--4----3---|--1--------|--------------------|-------------------|
G|--3----3---|--1----3---|--------------------|-------------------|
D|--5----3---|--1----3---|--------------------|-------------------|
A|-----------|-------5---|--------------------|---------------6-7-|
E|-----------|-----------|--------------------|------------/8-----|


Joe Walsh's Guitar      Pre-Solo
e|------------------------------------------------------|
B|-------------------------16----15----------13---------|
G|----------------15----14----14----13-13fb--13--/15----|
D|-------15----15----14---------------------------------|
A|-15-14----13------------------------------------------|
E|------------------------------------------------------|

Solo
e|----------------------------------------|-----------------------------------|
B|------16--------16------16------16------|--16-------------------------------|
G|-15fb-------15fb----15fb----15fb---15fb-|-------15====fbr15--13-------------|
D|----------------------------------------|---------------------------15--13--|
A|----------------------------------------|-----------------------------------|
E|----------------------------------------|-----------------------------------|

e|----------------------------------------|-----------------------------------|
B|-16fb--16fb--16-13--13----16------------|-----------------16--15------------|
G|------------------15--15==fbr15-15------|-----------16--15--14--13-14-13----|
D|----------------------------------15-13-|-15--15--15--14----------------15--|
A|----------------------------------------|---14--13--------------------------|
E|----------------------------------------|-----------------------------------|

e|-----13--------------13-----------|-----13--13-13-----------------------------------------|
B|--------16-13--13-------16-13--13-|-------------------------------------------------------|
G|-15fb--------15--15fb--------15---|-15fb---------15fbp13-15fb-13-15fb-13-15fb-13-15fb--13-|
D|----------------------------------|-------------------------------------------------------|
A|----------------------------------|-------------------------------------------------------|
E|----------------------------------|-------------------------------------------------------|

e|------------------------------------------------------------|--------------------|
B|------------------------------------------------------------|---------16--15-----|
G|-15fb--13-15b16.25-13-15fb-13-15fb-13-15fb-13---------------|---15--14--14--13---|
D|---------------------------------------------15-14-13--15---|-15--14----------15\|
A|-----------------------------------------------------13--12-|--------------------|
E|------------------------------------------------------------|--------------------|

e|-18fb-18fb-18-16--16--16----------------|----------------------------------------------|
B|----------------18--18--18-16-18-16--16-|----------------------------------------------|
G|-----------------------------------17---|-17\15p13-15-13--13---------------------------|
D|----------------------------------------|---------------15--15-13----------------------|
A|----------------------------------------|------------------------15\13p11--------------|
E|----------------------------------------|---------------------------------13-11-13-11\-|

e|-18fb-18fb-18-16--16--16----------------|----------------------------------------------|
B|----------------18--18--18-16-18-16--16-|----------------------------------------------|
G|-----------------------------------17---|-17\15p13-15-13--13---------------------------|
D|----------------------------------------|---------------15--15-13----------------------|
A|----------------------------------------|------------------------15\13p11--------------|
E|----------------------------------------|---------------------------------13-11-13-11\-|

e|-16--16-15--15-18--18-16--16-15--15-18-|--18-16--16-15--15-16fb-16fb--16-15-13---|
B|---------------------------------------|--------------------------------------16-|
G|---------------------------------------|-----------------------------------------|
D|---------------------------------------|-----------------------------------------|
A|---------------------------------------|-----------------------------------------|
E|---------------------------------------|-----------------------------------------|

e|-20fb-20fb-20fbv\---------------------|------------------------------------------------|
B|-----------------16fb-16fb-16-13------|------------------------------------------------|
G|--------------------------------15-13-|-15-13------------------------------------------|
D|--------------------------------------|------15-13-15-13-------------------------------|
A|--------------------------------------|------------------15\13p11-13-11----------------|
E|--------------------------------------|--------------------------------13-11-13-11-13\-|

BreakDown
e|----------------|------------------|---------------------|----------------------|
B|--10------------|------------------|---------------------|----------------------|
G|--10------------|------------------|---------------------|----------------------|
D|--10------------|------------------|---------------------|----------------------|
A|----------------|------------------|---------------------|----------------------|
E|----------------|------------------|---------------------|----------------1--2--|

Verse 6
e|--------------------|-------------------------|----------------------|----------------------|
B|-12-----------------|-------------------------|----------------------|----------------------|
G|-12---------12------|-12-12---12--------------|-10-10---10---10------|-10-10---10---10------|
D|-12--x-12-x-12-x-12-|-12-12-x-12--------------|-10-10-x-10-x-10-x-10-|-10-10-x-10-x-10-x-10-|
A|-10--x-10-x-10-x-10-|-10-10-x-10-/14-14-12-10-|-8--8--x-8--x-8--x-8--|-8--8--x-8--x-8--x-8--|
E|--------------------|-------------------------|----------------------|----------------------|

e|-----------------|-----------------|----------------------|---------------------||
B|-----------------|---------5---3---|----------------------|------------10---8---||
G|-5-5---5---5-----|-5-5---5-5---3---|-12-12---12---12------|------------10---9---||
D|-5-5-x-5-x-5-x-5-|-5-5-x-5-5---3---|-12-12-x-12-x-12-x-12-|-12-12-x-12-10---10--||
A|-3-3-x-3-x-3-x-3-|-3-3-x-3---------|-10-10-x-10-x-10-x-10-|-10-10-x-10----------||
E|-----------------|-----------------|----------------------|---------------------||

Verse 7
   Gtr. 1
e|----------------------|-------------------------|----------------------|----------------------|
B|----------------------|-------------------------|----------------------|----------------------|
G|----------------------|-------------------------|----------------------|----------------------|
D|-5---5----------------|-5---5-------------------|--3--3----------------|--3--3----------------|
A|-5---5----------------|-5---5-------------------|--3--3----------------|--3--3----------------|
E|-3---3----------------|-3---3-------------------|--1--1----------------|--1--1----------------|
 | Gtr. 2
e|----------------------|-------------------------|----------------------|----------------------|
B|----------------------|-------------------------|----------------------|----------------------|
G|-12-12---12---12------|-12-12-------------------|-10-10---10---10------|-10-10---10---10------|
D|-12-12-x-12-x-12-x-12-|-12-12-x-12--------------|-10-10-x-10-x-10-x-10-|-10-10-x-10-x-10-x-10-|
A|-10-10-x-10-x-10-x-10-|-10-10-x-10-/14-14-12-10-|-8--8--x--8-x-8--x-8--|-8--8--x--8-x-8--x-8--|
E|----------------------|-------------------------|----------------------|----------------------|


    Gtr. 1
e|----------------------|-------------------------|----------------------|----------------------|
B|----------------------|-------------------------|----------------------|--8\\\\\\\\\\---------|
G|-5---5----------------|-5---5-------------------|----------------------|----------------------|
D|-5---5----------------|-5---5-------------------|--5--5----------------|----------------------|
A|-3---3----------------|-3---3-------------------|--5--5----------------|----------------------|
E|----------------------|-------------------------|--3--3----------------|----------------------|
 |  Gtr. 2
e|-----------------|-----------------|----------------------|---------------------||
B|-----------------|--------------3--|----------------------|------------10---8---||
G|-5-5---5---5-----|-5-5---5------3--|-12-12---12---12------|------------10---9---||
D|-5-5-x-5-x-5-x-5-|-5-5-x-5-x-5--3--|-12-12-x-12-x-12-x-12-|-12-12-x-12-10---10--||
A|-3-3-x-3-x-3-x-3-|-3-3-x-3-x-3-----|-10-10-x-10-x-10-x-10-|-10-10-x-10----------||
E|-----------------|-----------------|----------------------|---------------------||


Steve Lukather's Guitar Solo 
e|----------------|-----------------------------|------------------|------------|
B|--3b------------|--6fb--6fb-------------------|------------------|------------|
G|--3b--------3b--|-----------5-3--5-3fb-3--3fb-|-3fbvvvvvvv-3b4r3-|-0~~~~vvvvv-|
D|-----5----------|-----------------------------|------------------|------------|
A|----------------|-----------------------------|------------------|------------|
E|----------------|-----------------------------|------------------|------------|

e|----------------------|----------------------------------|------------------------------------|
B|--------------8-------|------------------------11/-------|-15b16.25-15-14-13-13=p11------11---|
G|-10fbr10===fb---12p10-|-12=b13.75p10-12v12v12v-----12-12-|-----------------15------12-10---10-|
D|----------------------|----------------------------------|------------------------------------|
A|----------------------|----------------------------------|------------------------------------|
E|----------------------|----------------------------------|------------------------------------|

e|----------------------------------------------------|--------15vvvvv\---------|
B|----------------18--18------18------18------18------|-18fb--------------185fb-|
G|-12vvvvvv--------15-----15----15------15---------15-|-------------------------|
D|----------/10/15---15----15--------15-----15--------|-------------------------|
A|----------------------------------------------------|-------------------------|
E|----------------------------------------------------|-------------------------|

e|---------------------------|----------------15------|-------------------------|
B|-18-15---16----------------|---------18-------------|--------------------18fb-|
G|------17fb-17-17fbvvvv15fb======-15----17-15--17fb======-15-17--------0-------|
D|---------------------------|-------17---------------|--------17vvvvv\---------|
A|---------------------------|------------------------|-------------------------|
E|---------------------------|------------------------|-------------------------|

                                                                    *
e|-18-15-15-----15---------------------------------------------|--------------------------|
B|------18----15--18-15--15------------------------------------|---------------------18fb-|
G|---------17fb-------17fb-15-17-15----------------------------|------------------0-------|
D|---------------------------17-17-17-15-15--------------------|-------------0=====-------|
A|--------------------------------------17-17\15-13-15-13------|---------13--13-----------|
E|-------------------------------------------------------15-13-|-15brbrb------------------|

                                                                                   into next bar
e|-15-----18-17p15-17-18-17-18-18fbvvv\|------17-20-19--18-19--20--21-21b-21b-21b-|---21b---
B|---18p15-----------------------------|----18------------------------------------|--------
G|-------------------------------------|-/19--------------------------------------|-------
D|-------------------------------------|------------------------------------------|-----
A|-------------------------------------|------------------------------------------|----
E|-------------------------------------|------------------------------------------|---

Outro - Chorus (fade out)
e|----------------------|-------------------------|----------------------|----------------------|
B|----------------------|-------------------------|----------------------|----------------------|
G|-12-12---12---12------|-12-12---12--------------|-10-10---10---10------|-10-10---10---10------|
D|-12-12-x-12-x-12-x-12-|-12-12-x-12--------------|-10-10-x-10-x-10-x-10-|-10-10-x-10-x-10-x-10-|
A|-10-10-x-10-x-10-x-10-|-10-10-x-10-/14-14-12-10-|-8--8--x--8-x-8--x-8--|-8--8--x--8-x-8--x-8--|
E|----------------------|-------------------------|----------------------|----------------------|

e|-----------------|-----------------|----------------------|---------------------|
B|-----------------|---------5---3---|----------------------|------------10---8---|
G|-5-5---5---5-----|-5-5---5-5---3---|-12-12---12---12------|------------10---9---|
D|-5-5-x-5-x-5-x-5-|-5-5-x-5-5---3---|-12-12-x-12-x-12-x-12-|-12-12-x-12-10---10--|
A|-3-3-x-3-x-3-x-3-|-3-3-x-3---------|-10-10-x-10-x-10-x-10-|-10-10-x-10----------|
E|-----------------|-----------------|----------------------|---------------------|

e|----------------------|-------------------------|----------------------|----------------------|
B|----------------------|-------------------------|----------------------|----------------------|
G|-12-12---12---12------|-12-12---12--------------|-10-10---10---10------|-10-10---10---10------|
D|-12-12-x-12-x-12-x-12-|-12-12-x-12--------------|-10-10-x-10-x-10-x-10-|-10-10-x-10-x-10-x-10-|
A|-10-10-x-10-x-10-x-10-|-10-10-x-10-/14-14-12-10-|-8--8--x--8-x-8--x-8--|-8--8--x--8-x-8--x-8--|
E|----------------------|-------------------------|----------------------|----------------------|

e|-----------------|-----------------|||
B|-----------------|---------5---3---|||
G|-5-5---5---5-----|-5-5---5-5---3---|||
D|-5-5-x-5-x-5-x-5-|-5-5-x-5-5---3---|||
A|-3-3-x-3-x-3-x-3-|-3-3-x-3---------|||
E|-----------------|-----------------|||





| *  15b16.75r15b16.75r15b16.75
| b  Bend
| fb Full Bend
| =  Hold  (15==fb)
| r  Release (15fbr15)
| /  slide up
| \  slide down
| h  hammer-on
| p  pull-off
| v  vibrato
| ~  Let Ring
| +  harmonic
| x  Mute note
===============================================================================





Comments


Popular Don Henley tabs & chords
The Boys Of Summer 1 Bass Tabs
Come Rain Or Come Shine 1 Chords
Desperado Chords
Sometimes Love Just Ain’T Enough Chords
Sunset Grill Chords
For My Wedding Ukulele
Heart Of The Matter Ukulele
New York Minute Ukulele
Sometimes Love Just Aint Enough Ukulele
Taking You Home Ukulele


Song lyrics



↑ Back to top | Tablatures and chords are parodies/interpretations of the original songs. You may use it for private study, scholarship, research or language learning purposes only
© 2014 AZChords.com Contact us | Privacy policy | DMCA | Add/correct tabs | Request tabs | Top 50 tabs