» » »

Donavon Frankenreiter, What Ya Know About Tabs (ver.1)

Artists:  A B C D E F G H I J K L M N O P Q R S T U V W X Y Z # 

What Ya Know About Tabs (ver.1)

Donavon Frankenreiter Tabs
 Rating:
4/5 (4 votes)
What Ya Know About lessons Tabs too difficult? Try these video lessons and learn fast
                ----------------------------------------------------------------
		WHAT YA KNOW ABOUT- Donavon Frankenreiter
----------------------------------------------------------------

Every other tab was close, but not 100% correct. This tab is about 99% correct, because 
not positive if I got the little bass line after the bridge 100% correct or not. But 
is the correct tab for Donny's great song and also at the bottom are the correct lyrics

Tuning:Standard (EADGBE)

Verse:
e|------------------------------3-----|
B|-----3/5---3------------------3-----|
G|---------------4p2---0--------0-----|
D|------------------------------2-----|
A|--------------------------3---3-----|
E|------------------------------------|

e|------------------------------3-----|
B|-----3/5---3------------------3-----|
G|---------------4p2---0--------0-----|
D|------------------------------0-----|
A|------------------------------2-----|
E|--------------------------3---3-----|

Chorus:
e|---0---1---3------------------------|
B|---0---1---3------------------------|
G|---0---2---4------------------------|
D|---2---3---5------------------------|
A|---2---3---5------------------------|
E|---0---1---3------------------------|


Bridge:
	Repeat 3x		 Bass line (not 100% sure)
e|---2--0--3--0--3--|-----------------|
B|---3--3--3--3--3--|-----------------|
G|---2--2--2--2--2--|-----------------|
D|------------------|-----------------|
A|------------------|-----1-2/--------|
E|------------------|1-1-3------------|

Outro:
e|----------------------------3-------|
B|-----3/5---3---------------3--------|
G|---------------4p2---0----0---------|
D|-------------------------2----------|
A|------------------------3-----------|
E|------------------------------------|

e|----------------------------3---------|
B|-----3/5---3----------------3---------|
G|---------------4/2---0------0---------|
D|----------------------------0---------|
A|----------------------------2---------|
E|------------------------3---3---------|


Verse 1:
What ya know about freedom?
What ya know about me?
Have you seen the sunrise?
I heard it could set you free

Chorus:
Sometimes your life can crumble
Sometimes your life might make ya stumble
But you cant drown in your sorrow
Cause you might be found tomorrow

Verse 2:
What ya know about love?
You said our love would be
You said you were my girlfriend
Some girl you turned out to be

Chorus:
Sometimes your life can crumble
Sometimes your life might make you stumble
But you cant drown in your sorrow
Cause you might be found tomorrow

Verse 3:
What ya know about freedom?
What ya know about me?
Have you seen the sunrise?
I heard it can set ya free

Chorus:
Sometimes your life can crumble
Sometimes your life might make you stumble
But you cant drown in your sorrow
Cause you might be found, might be found tomorrow
Sometimes your life can crumble
Sometimes your life might make you stumble
But you cant drown in your sorrow
Cause you might be found tomorrow
            
Submit corrections

comments powered by Disqus
↑ Back to top | Donavon Frankenreiter Tabs for What Ya Know About. Lyrics for acoustic guitar and electric guitar. Tablatures and chords are parodies/interpretations of the original songs. You may use it for private study, scholarship, research or language learning purposes only