» » »

Free Bass tabs (ver.2)

Artists:  A B C D E F G H I J K L M N O P Q R S T U V W X Y Z # 

Free Bass tabs (ver.2)

Donavon Frankenreiter
Rating:
5/5 (1 vote)

Tabs too difficult? Try these video lessons and learn fast.
                

Tuning: Standard


So yeah, this tab is pretty simple and im way too lazy to post the whole thing. so here 
the main notes u need to know ;D

Verse:
G--------------------------------------------------|
D--------------------------------------------------|
A---------7-----3--2--0----------------------------|
E----3---------------------------------------------|

Chorus:
G--------------------------------------------------|
D--------------------------------------------------|
A---------------3-----3----------------------------|
E----3----1----------------------------------------|

Bridge:
G---------------------------------------------------------|
D---------------------------------------------------------|
A----------7-----3-----5--------------------3--2--0-------|
E----3---------------------------3-----0------------------|

and thats about it! please rate, comment and correct me ;D

Have a great day!
            
Tabs too difficult? Try these video lessons and learn fast.




comments powered by Disqus
↑ Back to top | Tablatures and chords are parodies/interpretations of the original songs. You may use it for private study, scholarship, research or language learning purposes only