» » »

Donavon Frankenreiter, Beautiful Day Tabs (ver.1)

Artists:  A B C D E F G H I J K L M N O P Q R S T U V W X Y Z # 

Beautiful Day Tabs (ver.1)

Donavon Frankenreiter Tabs
Rating:
2/5 (2 votes)
Beautiful Day lessons Tabs too difficult? Try these video lessons and learn fast
                -------------------------------------------------------------------------------
-------------------------------------------------------------------------------

      Great acoustic song by Donavon Frankenreiter.

Tuning: Standard


      Chords:

       A* or A    C#m    F#m7    D     Bm 
e|-----5-----5-----4------2-----5------2-------|
B|-----5-----5-----5------2-----7------3-------|
G|-----6-----6-----6------2-----7------4-------|
D|-----6-----7-----6------2-----7------4-------|
A|-----7-----7-----4------4-----5------2-------|
E|-----5-----5-----x------2-----x------x-------|



          Main Riff:


       A*(A)             C#m                    F#m7                D

e|-----5--------5--------4--------4-----------2-------2----------5-------5-----|
B|-----5--------5--------5--------5-----------2-------2----------7-------7-----|
G|-----6--------6--------6--------6-----------2-------2----------7-------7-----|
D|-----6--------6--------6--------6-----------2-------2----------7-------7-----|
A|-----7--------7---0-4--4--4--4--4-----------4-------4--2/5--5--5--5-5--5-----|
E|--5--5--5--5--5-----------------------0--2--2--2-2--2---------------------0--|



          Bridge:

            F#m7               Bm                    D 

e|--------2--------2--------2-------2------------5---------5-----------------|
B|--------2--------2--------3-------3------------7---------7-----------------|
G|--------2--------2--------4-------4------------7---------7-----------------|
D|--------2--------2--------4-------4------------7---------7-----------------|
A|--------4--------4---0-2--2--2-2--2----2/5--5--5---5--5--5-----------------|
E|--0--2--2---2-2--2-------------------------------------------0-------------|


        Back to Riff.



| /  slide up
| \  slide down
| h  hammer-on
| p  pull-off
| ~  vibrato
| +  harmonic
| x  Mute note
===============================================================================
            

comments powered by Disqus
↑ Back to top | Donavon Frankenreiter Tabs for Beautiful Day. Lyrics for acoustic guitar and electric guitar. Tablatures and chords are parodies/interpretations of the original songs. You may use it for private study, scholarship, research or language learning purposes only