» » »

Ordinary Day Tabs (ver.1)

Artists:  A B C D E F G H I J K L M N O P Q R S T U V W X Y Z # 

Ordinary Day Tabs (ver.1)

Dolores Oriordan
Rating:
5/5 (3 votes)

Hard to play? Try these video lessons and learn fast.
                XXXXXXXXXXXXXXXXXXXXXXXXXXXXXXXXXXXXXXXXXXXXXXXXXXXXXXXXXXXXXXXXXXX
X                                                                 X
X If you find this tab useful, post it to as many tab sites which X
X you are registered on, or correct the incorrect bits and do the X
X the same with my blessing. Cheers, Rincewind                    X
X                                                                 X
XXXXXXXXXXXXXXXXXXXXXXXXXXXXXXXXXXXXXXXXXXXXXXXXXXXXXXXXXXXXXXXXXXX

                        DOLORES O'RIORDAN

                          "Ordinary Day"


Standard tuning: E A D G B E


INTRO
 Guitar 1 acoustic
|-0---------------1---------------0---------------0---------------|
|-1---------------3---------------0---------------0---------------|
|-2---------------2---------------0---------------0---------------|
|-2---------------0---------------0---------------2---------------|
|-0-------------------------------2---------------2---------------|
|---------------------------------3---------------0---------------|
|Guitar 2 w/e-bow
|-----------------------------------------------------------------|
|-----------------------------------------------------------------|
|-9~~~~~~~~~~~~~~/10~~~~~~~~~~~~~\7~~~~~~~~~~~~~~\4b5r4b5r4~~~~~~-|
|-----------------------------------------------------------------|
|-----------------------------------------------------------------|
|-----------------------------------------------------------------|


VERSE
 Guitar 1 acoustic
|-0---------------1---------------0---------------0---------------|
|-1---------------3---------------0---------------0---------------|
|-2---------------2---------------0---------------0---------------|
|-2---------------0---------------0---------------2---------------|
|-0-------------------------------2---------------2---------------|
|---------------------------------3---------------0---------------|


CHORUS
 Guitar 1 acoustic
|-0---------------1---------------0---------------0---------------|
|-1---------------3---------------0---------------0---------------|
|-2---------------2---------------0---------------0---------------|
|-2---------------0---------------0---------------2---------------|
|-0-------------------------------2---------------2---------------|
|---------------------------------3---------------0---------------|
|Guitar 2 clean electric
|-------0---------------1-----------------------------------------|
|---1---------------3-------------------0---------------0---------|
|-----2---------------2-------------------------------------------|
|-----------------0-----------------0---------------2-------------|
|-0-----------------------------------2---------------2-----------|
|---------------------------------3---------------0---------------|

 Guitar 1 acoustic
|-0---------------1---------------0---------------0---------------|
|-1---------------3---------------0---------------0---------------|
|-2---------------2---------------0---------------0---------------|
|-2---------------0---------------0---------------2---------------|
|-0-------------------------------2---------------2---------------|
|---------------------------------3---------------0---------------|
|Guitar 2 clean electric
|-------0---------------1---------------------------0---0---0---0-|
|---1---------------3-------------------0---------0---0---0---0---|
|-----2---------------2-------------------------------------------|
|-----------------0-----------------0-----------------------------|
|-0-----------------------------------2---------------------------|
|---------------------------------3-------------------------------|


OUTRO
 Guitar 1 acoustic
|-0---------------1---------------0---------------0---------------|
|-1---------------3---------------0---------------0---------------|
|-2---------------2---------------0---------------0---------------|
|-2---------------0---------------0---------------2---------------|
|-0-------------------------------2---------------2---------------|
|---------------------------------3---------------0---------------|
|Guitar 2 w/e-bow
|-----------------------------------------------------------------|
|-----------------------------------------------------------------|
|--------------------------------/12~~~~~~~~~~~~~/13~~~~~~~\12\9--|
|-----------------------------------------------------------------|
|-----------------------------------------------------------------|
|-----------------------------------------------------------------|

 Guitar 1 acoustic
|-0---------------1---------------0---------------0---------------|
|-1---------------3---------------0---------------0---------------|
|-2---------------2---------------0---------------0---------------|
|-2---------------0---------------0---------------2---------------|
|-0-------------------------------2---------------2---------------|
|---------------------------------3---------------0---------------|
|Guitar 2 w/e-bow
|-----------------------------------------------------------------|
|-----------------------------------------------------------------|
|-12h14~12h14\9~~/12h14-12h14\9~~/12~~~~~~~~~~~~~\9gb10~~~~gr9~~--|
|-----------------------------------------------------------------|
|-----------------------------------------------------------------|
|-----------------------------------------------------------------|


b - bend to note
r - release from note
/ - slide to note
~ - vibrato
gb - gradual bend
gr - gradual release
            
Hard to play? Try these video lessons and learn fast. | Correct




comments powered by Disqus
↑ Back to top | Tablatures and chords are parodies/interpretations of the original songs. You may use it for private study, scholarship, research or language learning purposes only