» » »

Dolores Oriordan, Angel Fire Tabs (ver.1)

Artists:  A B C D E F G H I J K L M N O P Q R S T U V W X Y Z # 

Angel Fire Tabs (ver.1)

Dolores Oriordan Tabs
Rating:
4/5 (1 vote)
Angel Fire lessons Tabs too difficult? Try these video lessons and learn fast
                
Capo 1
Intro
e -----------------------------------------------------------------------------------------------|
b ------------0--------------------0---------------------0------------------------------0--------|
g ------------------------------2-----2----------------------------------------------------------|
D --------2-----2----------2-----------2------------6-------------------------2--4------2--1--2--|
A -----2-----------2----0-------------------------6--------6--7-----------2----------------------|
E --0--------------------------------------------4-----------------------------------------------|

The electric guitar in the chorus:
e --4--4--4--5--4----4--5--4--4--2--2--7--7--7--5--4--4--5--5--5---5--5---------------|
b --5--5--5--5--5----5--5--5--5--4--4--9--9--9--7--5--5--5--5--5---5--5---------------|
g ------------------------------------------------------------------------------------|
D ------------------------------------------------------------------------------------|
A ------------------------------------------------------------------------------------|
E ------------------------------------------------------------------------------------|
Acoustic guitar chords in the chorus:E Aadd9 B Dm C#
The power chord of E is played at the end of the chorus

Here is the chorus with the key change(note-this is only a half step higher)
Electric guitar:
e --5--5--5--6--5----5--6--5--5--3--3--8----8--8---6--5--5--6--6--6---6--6--|
b --6--6--6--6--6----6--6--6--6--5--5--10-10-10--8--6--6--6--6--6---6--6----|
g --------------------------------------------------------------------------|
D --------------------------------------------------------------------------|
A --------------------------------------------------------------------------|
E --------------------------------------------------------------------------|
Acoustic chords for the key change:F Bb C Dm
Ends with the power chord of F
            
Submit corrections

comments powered by Disqus
↑ Back to top | Dolores Oriordan Tabs for Angel Fire. Lyrics for acoustic guitar and electric guitar. Tablatures and chords are parodies/interpretations of the original songs. You may use it for private study, scholarship, research or language learning purposes only